» » »

Naked Pictures (Of Your Mother) Tabs (ver.1)

Artists:  A B C D E F G H I J K L M N O P Q R S T U V W X Y Z # 

Naked Pictures (Of Your Mother) Tabs (ver.1)

Electric Six
Rating:
0/5 (0 votes)

Hard to play? Try these video lessons and learn fast.
                Albumn: Fire

standard tunning
ok fairly easy song her we go

Intro
|--------------------------------
|--------------------------------
|--------------------------------
|--------------------------------
|----------------2---------4--4--
|----4-4-4-4-4-4---2--4-4--------

Verse
|-------------------
|-------------------
|--3b-3b-3b-3b-r-2--
|-------------------
|-------------------
|-------------------

chorus
|----------------------------
|----------------------------
|------------6-5--5----------
|---6-6-6-6--6-5--5-7-7-7-7--
|---6-6-6-6--4-3--3-7-7-7-7--
|---4-4-4-4---------5-5-5-5--

post chorus
|----------------
|--10-10-10-10---
|--9--9--9--9----
|----------------
|----------------
|----------------

haven't figured out the solo it's in C#

finish on the post chorus and that is all there is easy huh
Steve
            
Hard to play? Try these video lessons and learn fast. | Correct




comments powered by Disqus
↑ Back to top | Tablatures and chords are parodies/interpretations of the original songs. You may use it for private study, scholarship, research or language learning purposes only