» » »

Electric Six, Lucifer Airlines Bass tabs (ver.1)

Artists:  A B C D E F G H I J K L M N O P Q R S T U V W X Y Z # 

Lucifer Airlines Bass tabs (ver.1)

Electric Six Tabs
 Rating:
4/5 (4 votes)
Lucifer Airlines lessons Tabs too difficult? Try these video lessons and learn fast
                -------------------------------------------------------------------------------
-------------------------------------------------------------------------------
Album:I Shall Exterminate Everything Around Me That Restricts Me From Being The Master


Tuning: Standard

Intro/Verse
G|------------------------------------------------------------|  
D|------------------------------------------------------------|  X4
A|------3---4---/---------------------------------------------|
E|--1---------------6-6-4-6---6-6-4-6-------------------------|

Pre-Chorus
G|------------------------------------------------------------|
D|-----------------------------------------------6---6h8------|
A|-------------------------------------------6h8---8----------|
E|--1-1-1-1-1-1-1/9--4-4-4-4-4-4-4-6--6--6--------------------|

G|------------------------------------------------------------|
D|------------------------------------------------------------|
A|------------------------------------------------------------|
E|--1-1-1-1-1-1-1/9--4-4-4-4-4-4-4-6--6--7--------------------|

Intro/Verse/Chorus X4

Pre-Chorus

Intro/Verse/Chorus X6

Outro
G|-------------------------------------|  
D|-------------------------------------|
A|------3---4--/-----------------------|
E|--1----------------------------------|

G|-------------------------------------|  
D|-------------------------------------| X3
A|------3---4--------------------------|
E|--1----------------------------------|


| /  slide up
| \  slide down
| h  hammer-on
| p  pull-off
| ~  vibrato
| +  harmonic
| x  Mute note
===============================================================================
            
Submit corrections

comments powered by Disqus
↑ Back to top | Electric Six Bass for Lucifer Airlines. Lyrics for acoustic guitar and electric guitar. Tablatures and chords are parodies/interpretations of the original songs. You may use it for private study, scholarship, research or language learning purposes only