» » »

Lenny Kravitz Tabs (ver.1)

Artists:  A B C D E F G H I J K L M N O P Q R S T U V W X Y Z # 

Lenny Kravitz Tabs (ver.1)

Electric Six
Rating:
0/5 (0 votes)

Hard to play? Try these video lessons and learn fast.
                -------------------------------------------------------------------------------
-------------------------------------------------------------------------------

Tuning: Standard

Instructions:
    Figures 1 & 2 are tabbed as they are played, kinda.
    Figures 3,4 & 5 are chord progressions with chugging and sustain
    Fig 4. is the entire 'i have some money here...lenny kravitz' bit
    As always, play along to understand better
| ~  vibrato
| x  Mute note

Pattern: FIG 1. X6, FIG 2. X2, FIG 3., FIG 1. X8, FIG 2. X2, FIG 3.
         FIG 1. X4, FIG 1. X4 (solo), FIG 4., FIG 5., FIG 1. X12

FIG 1.                            FIG 2.
e|------------------------|   e|---------------------|
B|------------------------|   B|---------------------|
G|------------------------|   G|---------------------|
D|--5-x-x-3-x-3-3-3-------|   D|----5-x-x-5-x-3-3-3~ |
A|--5-x-x-3-x-1-1-1-------|   A|----5-x-x-3-x-1-1-1~ |
E|--3-x-x-1-x-------0-1-2-|   E|----3-x-x------------|

FIG 3.                        
e|-------------------------|  
B|-------------------------|  
G|-------------------------| 
D|-5~ -3~ -5-5-8-5-5-8-8-5-|  
A|-5~ -1~ -3-3-6\3-5-8-6\3-|  
E|-3~ -------------3/6-----|  

FIG 4.
e|--------------------------------------------------|
B|--------------------------------------------------|
G|--------------------------------------------------|
D|-5~-3~-3---------------5------3~ -3---------------|
A|-5~-1~-3---------------5------1~ -3---------------|
E|-3~-1~-1-1-1-1-1-1-1-1-3------1~ -1-1-1-1-1-1-1-1-|


FIG 5.
e|-------------------------|
B|-------------------------|
G|-------------------------|
D|-5-3-3-5-3-5-8-5-5-8-8-5-|
A|-5-3-1-5-1-3-6-3-5-8-6-3-|
E|-3-1---3---------3-6-----|

Ever since I met you
You were someone I knew
Looking for a little something
Something to do

You wanted one stop shopping
The clothes will fit ya
You wanna look pretty
When they're taking your picture

Now you want your life to move
A little bit faste
A little bit of death
A little bit of disaster

Well I was doing this
Before you were born
The glove already fit you
Before it was worn
And girl, the choice is yours
I can dress you up as the devil
Or I can dress you up as
One of the devil's whores

Oh-oh
Oh-oh-oh-oh
Oh-oh
Oh-oh-oh-oh

Oh-oh
Oh-oh-oh-oh
Oh-oh
Oh-oh-oh-oh

Calling all girls of the opposite sex
I know you just can't wait for what happens next
I got a five-step plan and a brand new facility
The perfect habitat for testing sex ability
All you need's a credit card, you're good to go
Roll a little footage
And film a little video
I wanna see who's living between your legs
You just can't make an omelette
Without breaking some eggs
And girl, what do you say?
You can dress me up like JFK
Hide in the grassy knoll
And blow me away!

Oh-oh
Oh-oh-oh-oh
Oh-oh
Oh-oh-oh-oh

Oh-oh
Oh-oh-oh-oh
Oh-oh
Oh-oh-oh-oh
Solo!

I have some money here for you
So reach into me and grab it

And I have never understood
Why anybody likes Lenny Kravitz

I see no reason for this to continue
I don't have anything else to put in you
Now go back home, girl, and do whatever it is
That you do

And girl I hate to break you the news
When you win here you really lose
And you'e been such a pleasure to use

Oh-oh
Oh-oh-oh-oh
Oh-oh
Oh-oh-oh-oh

Oh-oh
Oh-oh-oh-oh
Oh-oh
Oh-oh-oh-oh
===============================================================================
            
Hard to play? Try these video lessons and learn fast. | Correct




comments powered by Disqus
↑ Back to top | Tablatures and chords are parodies/interpretations of the original songs. You may use it for private study, scholarship, research or language learning purposes only