» » »

Electric Six, Jimmy Carter Tabs (ver.1)

Artists:  A B C D E F G H I J K L M N O P Q R S T U V W X Y Z # 

Jimmy Carter Tabs (ver.1)

Electric Six Tabs
 Rating:
4.3/5 (6 votes)
Jimmy Carter lessons Tabs too difficult? Try these video lessons and learn fast
1
                E----------------|
B----------------|
G-----------7----|
D------4---------|
A---------5------|
E----------------|
This part repeats as an intro for a while

E------------------------------------------------------2h3p2--2--0----------------|
B------------------------------------------------------------------0----2---5---2-|
G------7-------7------------------------------------------------------------------|
D-4-------4-------4-----------5---------5-----------------------------------------|
A----5-------5-------5---2---------2---------2------2-----------------0---0---0---|
E---------------------------3---------3---------3---------------------------------|
then the song goes to this part, which is the verse

E------------------------------2----------------------------------------------|
B---------------------------3----3----------------2-------2-------2-----------|
G---------4--------------2----------2----------2-----2-------2-------2------2-|
D------0-----0--------0----------------0----2-----------2-------2--------2----|
A---2-----------2-------------------------0-----------------------------------|
E-3----------------3----------------------------------------------------------|
This goes over the "...this is who we are, a celebrity..."
(let's call it a pre-chorus)

E---------------------10----10-------------------------0----0-------|
B-----------------------10----10-------------------------0----0-----|
G-------------------------11----11-------------------------1----1---|
D-9--9--9--9--11--12----------------5--5--5--5--4--2----------------|
A-9--9--9--9--11--12----------------5--5--5--5--4--2----------------|
E-7--7--7--7--9---10----------------3--3--3--3--2--0----------------|
This last part goes over the "...and there's a toxic cloud hanging over..." (let's call 
the chorus)

E-----------|
B-----------|
G-----------|
D--4--4--4--|
A--5--5--5--|
E-----------|
This is played at the very end of the song


 Song Order:
Intro X 10
Verse X 2
Prechorus X 2
Verse X 3
Prechorus X 2
Chorus X 4
Intro X 10
Verse X 2
Prechorus X 2
Chorus X 4
Intro X 19
Outro
            
Submit corrections

comments powered by Disqus
↑ Back to top | Electric Six Tabs for Jimmy Carter. Lyrics for acoustic guitar and electric guitar. 1 Tablatures and chords are parodies/interpretations of the original songs. You may use it for private study, scholarship, research or language learning purposes only