>
 >
Im The Bomb

Im The Bomb Bass Tabs

Electric Six - Im The Bomb chords, tabs, tablatures, lyrics

Guitar lessons | Add/correct | Request | Top 50 tabs Artists:  A B C D E F G H I J K L M N O P Q R S T U V W X Y Z 0-9

Im The Bomb Bass Tabs – Electric Six

CD, Sheet music, Poster

Do you like Im The Bomb? Share with your friends now
Bass Tabs
-------------------------------------------------------------------------------
                             I'm The Bomb - Electric Six
-------------------------------------------------------------------------------

Tuning:Standard


Intro
G|--------------------------------------------------------------------------|
D|--------------------------------------------------------------------------|
A|--------------------------------------------4-----------------------------|
E|--2--------4-----6----4-2--------4-----6------2--------4-----6-----4------|

G|---------------------------------------------8---8---8---8----------------|
D|-------------------------------------------------------------4---4---4-4--|
A|-----------------------------------------/-6---6---6---6-----------------4|
E|--2--------4-----6----4-2--------4-----6-------------------2---2---2------|
_____________________________________________________________________________
John R. Dequindre would play the last part of the intro live...

G|----8---8---8---8---11---11---11---11--|
D|---------------------------------------|
A|/-6---6---6---6---9----9----9----9-----|
E|---------------------------------------|
_____________________________________________________________________________

Verse 1
G|--------------------------------------------------------------------------|
D|--------------------------------------------------------------------------|
A|--------------------------------------------4-----------------------------|
E|--2--------4-----6----4-2--------4-----6------2--------4-----6-----4------|
                             *Verse B                                       *
G|--------------------------------------------------------------------------|
D|---------------------------4-4-4-4-4-4-4-4-6-6-6-6-8-8-8-6-4-4-4-4-4-4-4-4|
A|----------------------4--6------------------------------------------------|
E|--2--------4-----6--------------------------------------------------------|
                                                          *Verse C
G|--------------------------------------------------------------------------|
D|6-4-----------------------------------------------------------------------|
A|----6-4-----4-------------------------------------------------------------|
E|--------6-6---6-2------2/4--4/6--6-2p0-2-22--2-4---6--6-2p0-2--2------4--6|
                             Verse D
G|-----------------------------8---8---8---8--------------------------------|
D|---------------------------------------------4---4---4--------------------|
A|--------------------------/6---6---6---6---------------2-4----------------|
E|-4-6-2p0-2p0-2-----2-4---6-----------------2---2---2----------------------|
_____________________________________________________________________________
*John R. Dequindre Played Verse B live like this* As well as for Verse C

G|--------------------------------------------------------------------------|
D|----4---4---4---4---6---6---8---8---4---4---4---4---6---6---8---8---------|
A|--------------------------------------------------------------------------|
E|--2---2---2---2---4---4---6---6---2---2---2---2---4---4---6---8-----------|


_____________________________________________________________________________

Verse 2
G|--------------------------------------------------------------------------|
D|--------------------------------------------------------------------------|
A|--------------------------------------------4-----------------------------|
E|--2--------4-----6----4-2--------4-----6------2--------4-----6-----4------|
                             *Verse B                                       *
G|--------------------------------------------------------------------------|
D|---------------------------4-4-4-4-4-4-4-4-6-6-6-6-8-8-8-6-4-4-4-4-4-4-4-4|
A|----------------------4--6------------------------------------------------|
E|--2--------4-----6--------------------------------------------------------|
                                                        Verse C
G|--------------------------------------------------------------------------|
D|6-4-----------------------------------------------------------------------|
A|----6-4---4---4-----------------------------------------------------------|
E|--------6---4---2------224---6--6-2--------4-----6--6-2p0-2-----4----6--6-|

G|--------------------------------------------------------------------------|
D|--------------------------------------------------------------------------|
A|----------------------------------------------/---------------------------|
E|2p0-2-2-----22-4-4-6--4-6-2p0-2p0-2----2-4--6-----------------------------|

Chorus 1
G|----8---8---8---8---11---11---11---11-------------------------------6---7-|
D|----------------------------------------11---11---11---11---6---6---------| X3
A|--6---6---6---6---9----9----9----9--------------------------------4---5---|
E|--------------------------------------9----9----9----9----4---4-----------|

G|----8---8---8---8---11---11---11------------------------------------------|
D|---------------------------------------11---11---11-------6---6---6-------|
A|--6---6---6---6---9----9----9----9-7--------------------------------------|
E|-------------------------------------9----9----9----9-7-4---4---4---2-0---|

G|--------------------------------------------------------------------------|
D|--------------------------------------------------------------------------|
A|--------------4-6-6-6-6--------------4-6-6-6-4----------------------------|
E|--2-2--4--2-6------------2-2--4--2-6-----------4-6------------------------|
_____________________________________________________________________________
*John R. Dequindre Played Verse B live like this* As well as for Verse C And 
Chorus

Verse 2
G|--------------------------------------------------------------------------|
D|----4---4---4---4---6---6---8---8---4---4---4---4---6---6---8---8---------|
A|--------------------------------------------------------------------------|
E|--2---2---2---2---4---4---6---6---2---2---2---2---4---4---6---8-----------|

Chorus 
G|----8---8---8---8---11---11---------------------------------------6---7-|
D|------------------------------9---9---11---11---11---11---6---6---------| X3
A|--6---6---6---6---9----9----------------------------------------4---5---|
E|----------------------------7---8---9----9----9----9----4---4-----------|

G|----8---8---8---8---11---11---11------------------------------------------|
D|---------------------------------------11---11---11-------6---6---6-------|
A|--6---6---6---6---9----9----9----9-7--------------------------------------|
E|-------------------------------------9----9----9----9-7-4---4---4---2-0---|

G|--------------------------------------------------------------------------|
D|--------------------------------------------------------------------------|
A|--------------4-6-6-6-6--------------4-6-6-6-4----------------------------|
E|--2-2--4--2-6------------2-2--4--2-6-----------4-6------------------------|
______________________________________________________________________________

Bridge
G|--------------------------------------------------------------------------|
D|--------------------------------------------------------------------------|
A|--------------------------------------------4-----------------------------|
E|--2--------4-----6----4-2------2-4-----6------2--------4-----6-----4------|
                           
G|--------------------------------------------------------------------------|
D|---------------------------4--------6-----8----6-4--------6-----8----6----|
A|----------------------4--6------------------------------------------------|
E|--2--------4-----6--------------------------------------------------------|

G|--------------------------------------------------------------------------|
D|4--------6-----8----6-4--------6-4---4------------------------------------|
A|-----------------------------------6---h6p4h6-4---4-----------------------|
E|------------------------------------------------6---2p0-2p0-2p0---2-4--6--|

G|--------------------------------------------------------------------------|
D|--------------------------------------------------------------------------|
A|-------------------------4--------------------------------/---------------|
E|--4-2p0-2--2---2-4--4-6----4h6--2p0-2p0-2--------4-----6------------------|

Chorus 2
G|----8---8---8---8---11---11---11---11-------------------------------6---7-|
D|----------------------------------------11---11---11---11---6---6---------| X3
A|--6---6---6---6---9----9----9----9--------------------------------4---5---|
E|--------------------------------------9----9----9----9----4---4-----------|

G|----8---8---8---10---11---10---8---7---6---5------------------------------|
D|-----------------------------------------------8---7----------------------|
A|--6---6---6---8----9----8----6---5---4---3--------------------------------|
E|---------------------------------------------6---5---4-4-4-4-4-4-4-4------|

G|--------------------------------------------------------------------------|
D|------------------------------------------------4-------------------------|
A|--------------4-6-6-4h6-6---------------4-6-6-6---4-6-------------4-6-6-6-|
E|--2-2--4--2-6---------------2-2--4--2-6---------------2-2--4--2-6---------|

G|--------------------------------------------------------------------------|
D|--------------------------------------------------------------------------|
A|--6-4----------------4-6--------------------------------------------------|
E|------6--2-2--4--2-6------------------------------------------------------|

_____________________________________________________________________________
Section 


| /  slide up
| \  slide down
| h  hammer-on
| p  pull-off
| ~  vibrato
| +  harmonic
| x  Mute note
===============================================================================





Comments


Popular Electric Six tabs & chords
Bite Me Bass Tabs
Improper Dancing 1 Bass Tabs
After Hours Chords
American Cheese Chords
Dance Commander Chords
 Gay Bar 1 Tabs
Dance Epidemic Tabs
Don't Be Afraid Of The Robot Tabs
The Newark Airport Boogie Tabs
American Cheese Ukulele


Song lyrics



↑ Back to top | Tablatures and chords are parodies/interpretations of the original songs. You may use it for private study, scholarship, research or language learning purposes only
© 2014 AZChords.com Contact us | Privacy policy | DMCA | Add/correct tabs | Request tabs | Top 50 tabs