» » »

I Lost Control Of My Rock N Roll Tabs (ver.1)

Artists:  A B C D E F G H I J K L M N O P Q R S T U V W X Y Z # 

I Lost Control Of My Rock N Roll Tabs (ver.1)

Electric Six
Rating:
0/5 (0 votes)

Hard to play? Try these video lessons and learn fast.
                I Lost Control (Of My Rock n Roll)
----------------------------------

This is the b-side from the single 'Danger! High Voltage!'
It's a brilliant song, but I wasn't able to tab out the lead guitar bit-

Thanks a lot!


Verse
e|-------------------|
B|-------------------|
G|-7------7----------|
D|-7--7---7--7/8--8--|
A|-5--7---5--7/8--8--|
E|----5------5/6--6--|

Pre-Chorus
e|--------------------------------|
B|--------------------------------|
G|-7x7x7x7x--4/5--5--4/5--5--4/5--|
D|-7x7x7x7x--4/5--5--4/5--5--4/5--|
A|-5x5x5x5x--2/3--3--2/3--3--2/3--|
E|--------------------------------|

Chorus
e|----------------------|
B|----------------------|
G|----------------5x5---|
D|-/222222--5555--5x5---|
A|-/222222--5555--3x3---|
E|-/000000--3333--------|

Bridge
e|-----------------|
B|-----------------|
G|-7777----7777-55-|
D|-7777-77-7777-55-|
A|-5555-77-5555-33-|
E|------55---------|

ORDER
Verse 		x13
Pre-Chorus	x2
Chorus		x3
Verse		x8
Bridge		x4
Pre-Chorus	x2
Chorus		x3
Verse		x1
            
Hard to play? Try these video lessons and learn fast. | Correct




comments powered by Disqus
↑ Back to top | Tablatures and chords are parodies/interpretations of the original songs. You may use it for private study, scholarship, research or language learning purposes only