» » »

Electric Six, I Invented The Night Chords (ver.1)

Artists:  A B C D E F G H I J K L M N O P Q R S T U V W X Y Z # 

I Invented The Night Chords (ver.1)

Electric Six Tabs
 Rating:
4.2/5 (5 votes)
I Invented The Night lessons Tabs too difficult? Try these video lessons and learn fast
1
                -------------------------------------------------------------------------------
-------------------------------------------------------------------------------

Tuning: Standard


Intro/Verse

      C          D          Am
e|-----------------------------------------------------|
B|-----------------------------------------------------|
G|----5-5--555---7-7--777------------------------------|
D|----5-5--555---7-7--777---7-7--777---7-7--777--------|
A|----3-3--333---5-5--555---7-7--777---7-7--777--------|
E|--------------------------5-5--555---5-5--555--------|

C                           D                   Am
Hey little kitty with your tail dragging on the floor.
C                             D                  Am
You could have a following in every town that you go,
C                                Am
But you remember what you said to me
C                               D
That you are nothing without me

Chorus

     F    G Am             F    G Am             C           D     F
e|----------------------------------------------------------------------------|
B|----------------------------------------------------------------------------|
G|-----------------------------------------------5--5-5-555--7777--10-1010----|
D|---3--3-5-7--7--7-xx-7---3--3-5-7--7--7-xx-7---5--5-5-555--7777--10-1010----|
A|---3--3-5-7--7--7-xx-7---3--3-5-7--7--7-xx-7---3--3-3-333--5555--8--8-8-----|
E|---1--1-3-5--5--5-xx-5---1--1-3-5--5--5-xx-5--------------------------------|

           F          G Am
'Cause I invented the night
          F           G Am
Yeah I invented the night
         C              D        F 
In my laboratory using lust and lies


Hey little birdie fly until your wings desert you.
And when you come down, come down on me 'cause you know I will never hurt you.
But maybe once or twice I'll ruffle your feathers,
'Cause you said we should always be together

'Cause I invented the night
Yeah I invented the night
Mixing elements of the strangest kind

Bridge

      G       Am      C               G       Am      Bb      C 
e|------------------------------------------------------------------------|
B|------------------------------------------------------------------------|
G|------------222222225555555555555555--------222222223333333355555555----|
D|----5555555522222222555555555555555555555555222222223333333355555555----|
A|----5555555500000000333333333333333355555555000000001111111133333333----|
E|----33333333------------------------33333333----------------------------|


G                   Am                       C
And should your invention be destroyed in a fire
C
John, it's only Monday
           G  
I gave you Tuesday night, and Wednesday night,
    Am
and Thursday night and Friday night,
Bb                                  C
The weekend is a sea of electric light,
C
Turn it on

Hey little doggy always looking for a bigger bone,
Try to see how many times that you can run away from home.
But in the end you always come back to me
'Cause you are nothing without me

'Cause I invented the night,
Yeah I invented the night,
Mixing elements of the strangest kind

End on Am

Enjoy!
            
Submit corrections

comments powered by Disqus
↑ Back to top | Electric Six Chords for I Invented The Night. Lyrics for acoustic guitar and electric guitar. 1 Tablatures and chords are parodies/interpretations of the original songs. You may use it for private study, scholarship, research or language learning purposes only