» » »

I Buy The Drugs Bass tabs (ver.2)

Artists:  A B C D E F G H I J K L M N O P Q R S T U V W X Y Z # 

I Buy The Drugs Bass tabs (ver.2)

Electric Six
Rating:
0/5 (0 votes)
Tabs too difficult? Try these video lessons and learn fast.
                -------------------------------------------------------------------------------
                           I Buy The Drugs - Electric Six
-------------------------------------------------------------------------------

Tuning:Standard

There was another Bass tab of this song on here but that versions Intro/Verse weren't 
100% accurate as was the chorus Rhythm and Stroke wise. This one should be correct.

Intro/Verse
G|-----------------------------------------------------------------------|
D|-----------------------------------------------------------------------| X3
A|-----------------------------------------------------------------------|
E|--3-3--3-4-5-5--5-6-7-7--7-8-9-9-9-9-9-9-7-0-3-3--3-4-5-5--5-0--7-7--7\|

Chorus
G|-------------------------------------|
D|-------------------------------------| X2
A|--5--5------------2-2--5--5----------|
E|-------3-3---0--0-----------3-3--0---|

G|----------------------------|
D|----------------------------|
A|--3-3--3-3-3--3-3-3--3-3-3--|
E|----------------------------|

Verse X3

Chorus X1

Verse (Solo) X1

G|--------------------------------------------------------------------------|
D|--------------------------------------------------------------------------|
A|--------------------------------------------------------------------5-----|
E|--3-3--3-4-5-5--5-6-7-7--7-8-9-9-9-9-9-9-7-0-3-3--3-4-5-5--5-0--7-7-------|

Breakdown

"And I will send it back to you"
G|--------------------------------------------------------------------------|
D|--------------------------------------------------------------------------|
A|--5--5--------------------5-5-5-5-----------------22222222----------------|
E|--------3--3--0--0--0--0----------3-3-3-3-0-0-0-0-------------------------|

Last Chorus
G|--------------------------------------------------------------------------|
D|--------------------------------------------------------------------------|
A|--5--5------------222-2/5--5------------22222222--5-5-5-------------------|
E|-------3-3---0--0------------3-3--0-0--------------------3-3-3--0-0-0-----|

G|-------------------------------------------|
D|-------------------------------------------|
A|--22222222--5-5-5----------------22222222--|
E|-------------------3-3-3--0-0-0------------|

Outro
G|--------------------------------------------------------------------------|
D|--------------------------------------------------------------------------|
A|--------------------------------------------------------------------------|
E|--3-3--3-4-5-5--5-6-7-7--7-8-9-9-9-9-9-9-7-0-3-3--3-4-5-5--5-0------------|



| /  slide up
| \  slide down
| h  hammer-on
| p  pull-off
| ~  vibrato
| +  harmonic
| x  Mute note
===============================================================================
            
Tabs too difficult? Try these video lessons and learn fast.


comments powered by Disqus
↑ Back to top | Tablatures and chords are parodies/interpretations of the original songs. You may use it for private study, scholarship, research or language learning purposes only