» » »

G@Y Bar Tabs (ver.1)

Artists:  A B C D E F G H I J K L M N O P Q R S T U V W X Y Z # 

G@Y Bar Tabs (ver.1)

Electric Six
Rating:
0/5 (0 votes)

Hard to play? Try these video lessons and learn fast.
                Artist - Electric six
Song - G@y Bar
This is the easiest way found of playing this

e-------------------------------|
B-------------------------------|
G-------------------------------|
D------3-5-3--------------------|
A--5-5-------5-4-3-3-0-0-0-3-0--|
E-------------------------------|

e-------------------------------|
B-------------------------------|
G-------------------------------|
D------3-5-3--------------------|
A--5-5-------5-4-3-3-0-0-0-3-0--|
E-------------------------------|

e-------------------------------|
B-------------------------------|
G-------------------------------|
D------3-5-3--------------------|
A--5-5-------5-4-3-3-0-0-0-3-0--|
E-------------------------------|

e-------------------------------|
B-------------------------------|
G-------------------------------|
D------3-5-3--------------------|
A--5-5-------5-4-3-3-0-0-0-3-0--|
E-------------------------------|

e-------------------------------|
B-------------------------------|
G-------------------------------|
D------3-5-3--------------------|
A--5-5-------5-4-3-3-0-0-0-3-0--|
E-------------------------------|

I dunno the solo part of this so when i do ill post it ok?
            
Hard to play? Try these video lessons and learn fast. | Correct




comments powered by Disqus
↑ Back to top | Tablatures and chords are parodies/interpretations of the original songs. You may use it for private study, scholarship, research or language learning purposes only