» » »

Electric Six, Gay Bar, Correct & Tabs (ver.1)

Artists:  A B C D E F G H I J K L M N O P Q R S T U V W X Y Z # 

Gay Bar, Correct & Tabs (ver.1)

Electric Six Tabs
Rating:
0/5 (0 votes)
Hard to play? Try these video lessons and learn fast.
                (Complete)
OK I have 2 versions of the tune so here they both are

[version 1]

E|--------------------------------
B|--------------------------------
G|--------------------------------
D|--------------------------------
A|-------8-10-8-------------------
E|-10-10--------10-9-8-8-5-5-8-9--


[version 2]

E|----------------------------
B|----------------------------
G|----------------------------
D|-----3-5-3------------------
A|-5-5-------5-4-3-3-0-0-3-4--
E|----------------------------


Thats all!
            

comments powered by Disqus
↑ Back to top | Electric Six Tabs for Gay Bar, Correct &. Lyrics for acoustic guitar and electric guitar. Tablatures and chords are parodies/interpretations of the original songs. You may use it for private study, scholarship, research or language learning purposes only