» » »

Future Boys Tabs (ver.1)

Artists:  A B C D E F G H I J K L M N O P Q R S T U V W X Y Z # 

Future Boys Tabs (ver.1)

Electric Six
Rating:
3/5 (2 votes)

Hard to play? Try these video lessons and learn fast.
                Band: Electric Six


e|----------------------------------------------------------- |
b|----------------------------------------------------------- |
g|----------------------------------------------  \ play this | 15 times
d|-------12-------------------------------------------------- |  /
a|----------12--8-8-10-8------------------------------------- |
E|----10------------------13-13---8-8-8-10------------------- |

Bobby goes to work on mondays
He's got a car, but he don't drive
Billy meets him at the office
And no one knows he's alive!

Tommy's closing a big deal
And he's running late for Squash
Mikey's talking on his cell phone
His confidence is never lost

Here come the Future Boys (future boys)
Here come the Future Boys (future boys)
Meet the Future Boys! (future boys)


    a5        c5
e|-----------------------------------------------|
b|-----------------------------------------------|
g|-----------------------------------------------|
d|--7-7-7-7---10-10-10-10------------------------|
a|--7-7-7-7---10-10-10-10------------------------|
E|--5-5-5-5---8--8--8--8-------------------------|

Making money, OH MY GOD!


      d5     a5    f5     c5
e|------------------------------------------------- |
b|------------------------------------------------- |
g|------------------------------------------------- |  \This is played during
d|----12-----7-----15-----10----------------------- |  /the synth solo
a|----12-----7-----15-----10----------------------- |
E|----10-----5-----13-----8------------------------ |


Looking so good you want to eat them
Watching how future women treat them
No weapon on earth could ever defeat them

      e5  g5   c5   a5
e|---------------------------------------------|
b|---------------------------------------------|
g|----9---12-----------------------------------|
d|----9---12---10---7--------------------------|
a|----7---10---10---7--------------------------|
E|-------------8----5--------------------------|

Here you see the creature in his natural habitat
Can't take away his money 'cause he's got too much of that

   [no guitar for ^this part^, ]

    e5              a5   c5
e|--------------------------------|
b|--------------------------------|
g|--------------------------------|
d|--2---2---2---2---7----10-------|
a|--2---2---2---2---7----10-------|
E|--0---0---0---0---5----8--------|


Future Boys will be Future Boys, hey!

e|----------------------------------------------|
b|----------------------------------------------|
g|----------------------------------------------|
d|-------12-------------------------------------|
a|----------12--8-8-10-8------------------------|
E|----10------------------13-13---8-8-8-10------|


 [Second half of song is same notes as first part of song]

Stevie's joined a corporation
Another bee for the beehive
Johnny makes love to a dummy
Says, "ain't it good to be alive?"

Here come the Future Boys (future boys)
Here come the Future Boys (future boys)
Meet the Future Boys! (future boys)
Making money, OH MY GOD!

Looking so good you want to eat them
Watching how future women treat them
No weapon on earth could ever defeat them

Here you see the creature in his natural habitat
Can't take away his money 'cause he's got too much of that
Future Boys will be Future Boys, hey!

I say, Future Boys will be Future Boys, hey!
Future Boys will be Future Boys, hey!
Oh, Future Boys will be Future Boys, yeah...
            
Hard to play? Try these video lessons and learn fast. | Correct




comments powered by Disqus
↑ Back to top | Tablatures and chords are parodies/interpretations of the original songs. You may use it for private study, scholarship, research or language learning purposes only