» » »

Electric Six, Feed My Fuckin' Habit Bass tabs (ver.1)

Artists:  A B C D E F G H I J K L M N O P Q R S T U V W X Y Z # 

Feed My Fuckin' Habit Bass tabs (ver.1)

Electric Six Tabs
Rating:
0/5 (0 votes)
Feed My Fuckin' Habit lessons Tabs too difficult? Try these video lessons and learn fast
                Band: Electric Six
Members: Dick Valentine, Percussion World, Tait Nucleus?, Smorgasbord, Johnny Na
$hinal, The Colonel 
Symbol key: / - slide up

Tuning: EADG (standard)

If you think that there are errors with this tab, please leave a comment or PM me 
before you rate it so I can correct it.

Bass comes in at around 0:01, so the beginning really:

G|----------------|
D|----------------|
A|------------4-4-|
E|--1-1--4-4------|x4

G|----------------|
D|------------1-1-|
A|-------1-1------|
E|--2-2-----------|x2

G|----------------|
D|----------------|
A|------------4-4-|
E|--1-1--4-4------|x4

G|----------------|
D|------------1-1-|
A|-------1-1------|
E|--2-2-----------|x2

G|----------------|
D|----------------|
A|------------4-4-|
E|--1-1--4-4------|x6

G|----------------|
D|------------1-1-|
A|-------1-1------|
E|--2-2-----------|x2

G|----------------|
D|----------------|
A|------------4-4-|
E|--1-1--4-4------|x4

G|----------------|
D|------------1-1-|
A|-------1-1------|
E|--2-2-----------|x2

G|----------------|
D|----------------|
A|------------4-4-|
E|--1-1--4-4------|x6


End on this slide:

G|------------|
D|------------|
A|------------|
E|--1-1/13----|
            

comments powered by Disqus
↑ Back to top | Electric Six Bass for Feed My Fuckin' Habit. Lyrics for acoustic guitar and electric guitar. Tablatures and chords are parodies/interpretations of the original songs. You may use it for private study, scholarship, research or language learning purposes only