>
 >
Electric Demons In Love

Electric Demons In Love Bass Tabs

Electric Six - Electric Demons In Love chords, tabs, tablatures, lyrics

Guitar lessons | Add/correct | Request | Top 50 tabs Artists:  A B C D E F G H I J K L M N O P Q R S T U V W X Y Z 0-9

Electric Demons In Love Bass Tabs – Electric Six

CD, Sheet music, Poster

Do you like Electric Demons In Love? Share with your friends now
Bass Tabs
-------------------------------------------------------------------------------
-------------------------------------------------------------------------------
Album:Fire

Tuning:Standard

Intro

G|-------------------|
D|-------------------| X8
A|-------------------|
E|--4-4-4-2/---------|

Verse 1

G|--------------------------------------------------------------------------|
D|--------------------------------------------------------------------------|
A|--4---0h4h6--4-------4-4--4--4--4-6-6--6--------4-4--4--4--4-6-6--6-------|
E|---------------4---6---------------------4-4--4---------------------4-4--4|

G|----------------------------------------------------------------|
D|----------------------------------------------------------------|
A|--4-4--4--4--4-6-6--6-----------4-4--4--4--4-6-6--6-------------|
E|-----------------------4-4-6-4-----------------------4-4-4-6----|

G|-----------------------------------------|
D|-----------------------------------------|
A|4-4--4--4--4-6-6--6----------------------|
E|--------------------4-4-4-4--------------|

Intro X8

Verse 2

G|-----------------------------------------------------------------|
D|-----------------------------------------------------------------|
A|--4-4--4--4--4-6-6--6---------4-4--4--4--4-6-6--6---4------------|
E|----------------------4-4--4----------------------4---6-4--------|

G|-----------------------------------------------------------------|
D|-----------------------------------------------------------------|
A|--4-4--4--4--4-6-6--6---------4-4--4--4--4-6-6--6----------------|
E|----------------------4-4--4----------------------4-4-4-4--------|

Chorus
"Where Starting a fiyah"
G|----------------------------8------------|
D|----6-------8-------4---------6h8--------|
A|------4h6-----6h8-----2h4-6--------------|
E|--4-------6-------2----------------------|
_____________________________________________________________________________
At least as of 2011 Smorg plays the chorus live like this.

G|----------------------------8---8--------|
D|----6---6---8---8---4---4----------------| X2
A|--------------------------6---6----------|
E|--4---4---6---6---2---2------------------|

G|-----------------------------------------|           G|-----------|
D|----6---6---8---8---4---4----------------|2nd time   D|-----------|
A|--------------------------666-4----------|end with   A|-666-6-6---|
E|--4---4---6---6---2---2---------6--------|           E|-----------|
_____________________________________________________________________________

Intro X6

G|-----------------------------------------|
D|--6-666-666-664--------------------------|
A|---------------6-------------------------|
E|-----------------------------------------|

Bridge

G|--------------------------------------------------------------|
D|--------------------------------------------------------------|
A|---------6-4-----------6-6-6-----------6-4-----------6--------|
E|--4-4-4------6--2--2-2-------2--4-4-4------6--2--2-2----------|

G|--------------------------------------------------------------|
D|----------------------------------------6---6---8---8---------|
A|----------------6-4-----------6-6-6-----------------------4\--|
E|--2-2-3-4-4--4------6--2--2-2-------3-4---4---6---6---2-------|

Verse

G|-----------------------------------------------------------------------|
D|-----------------------------------------------------------------------|
A|-4-4--4--4--4-6-6--6---------4-4--4--4--4-6-6--6-----------------------|
E|---------------------4-4--4-----------------------4-4-6-4--------------|

G|-------------------------------------------------------------|
D|-------------------------------------------------------------|
A|-4-4--4--4--4-6-6--6---------4-4--4--4--4-6-6--6-------------|
E|---------------------4-4--4-----------------------4-4--------|

G|--------------------------------------------------------------|
D|--------------------------------------------------------------|
A|-4-4--4--4--4-6-6--6----------4-4--4--4-4---6-6-4-------------|
E|---------------------4-4-6-4--------------6-------6-4-4-6-4---|

Not entirely sure of this next part but sounds close enough.. Sorry :/
G|-----4-4------------------------------------------------------------|
D|---------6-6-4\--1-1------------------------------------------------|
A|-4-4-----------------4-2--------------------------------------------|
E|-------------------------4-4-4-4------------------------------------|

Chorus
"Where Starting a fiyah"
G|----------------------------8------------|
D|----6-------8-------4---------6h8--------|3x
A|------4h6-----6h8-----2h4-6--------------|
E|--4-------6-------2----------------------|

G|-----------------------------------------|
D|----6-------8-------4--------------------|
A|------4h6-----6h8-----2h4-6-6-6----------|
E|--4-------6-------2-------------6--------|

Outro
The outro is just the same riff with little variations, But I hate Tabs that say "Outro 
is the same with variations" So here are the variations.:)
Also Almost always live nowadays Smorg just plays the live chorus as outro, I have heard 
ONE instance in 2010 where he played the album outro.

"We're Starting a fiyah"

G|-----------------------------------------------|
D|---------------------------------5-8-5---------|
A|------3-6-3----5-8-5----1-4-1--6---------------|
E|----4--------6--------2------------------------|

G|-----------------------------------------------|
D|---------------------------------5-------------|
A|------3-6-3----5-8-5----1-4-1--6---6-----------|
E|----4--------6--------2--------------6---------|

G|-----------------------------------------------|
D|----------------------------------5-8-5--------|
A|------3-6-3------8-5-----1-4-1--6--------------|
E|----4--------6-6-------2-----------------------|

"In Looooooooooove"
G|-----------------------------------------------|
D|---------------------------------5-------------|
A|------3-6-3----5-8-5----1-4-1--6---6-----------|
E|----4--------6--------2--------------6---------|

2:38
G|-----------------------------------------------|
D|---------------------------------5-8-5---------|
A|------3-6-3----5-8-5----1-4-1--6---------------|
E|----4--------6--------2------------------------|

G|-----------------------------------------------|
D|---------------------------------5-------------|
A|------3-6-3----5-8-5----1-4-1--6---6-----------|
E|----4--------6--------2--------------6---------|

G|-----------------------------------------------|
D|---------------------------------5-8-5---------|
A|------3-6-3----5-8-5----1-4-1--6---------------|
E|----4--------6--------2------------------------|

G|-----------------------------------------------|
D|-----------------------------------------------|
A|------3-6-3----5-8-5----1-4-1--6-6-6\----------|
E|----4--------6--------2------------------------|

G|-------------------|
D|-------------------| X8
A|-------------------|
E|--4-4-4-2/---------|

G|-------------------|
D|-------------------| Ringout
A|-------------------|
E|--4----------------|



| /  slide up
| \  slide down
| h  hammer-on
| p  pull-off
| ~  vibrato
| +  harmonic
| x  Mute note
===============================================================================





Comments


Popular Electric Six tabs & chords
Dance Commander 1 Bass Tabs
I Buy The Drugs 2 Bass Tabs
I Invented The Night Bass Tabs
Improper Dancing Bass Tabs
The Future Is In The Future Bass Tabs
Jam It In The Hole Chords
Jimmy Carter Chords
 Gay Bar 1 Tabs
Cluster Fuck Tabs
Dance Epidemic Tabs


Song lyrics



↑ Back to top | Tablatures and chords are parodies/interpretations of the original songs. You may use it for private study, scholarship, research or language learning purposes only
© 2014 AZChords.com Contact us | Privacy policy | DMCA | Add/correct tabs | Request tabs | Top 50 tabs