» » »

Devil Nights Bass tabs (ver.1)

Artists:  A B C D E F G H I J K L M N O P Q R S T U V W X Y Z # 

Devil Nights Bass tabs (ver.1)

Electric Six
Rating:
0/5 (0 votes)

Tabs too difficult? Try these video lessons and learn fast.
                -------------------------------------------------------------------------------
                             Devil Nights - Electric Six
-------------------------------------------------------------------------------

Tuning:Standard


Intro 
G|--------------------5---5---7---7---8---8---10---10-----------------------|
D|--------------------------------------------------------------------------|
A|------------------3---3---5---5---6---6---8----8--------------------------|
E|--3-3-3-3-3-3-3-3-----------------------------------3-3-3-3-3-3-3-3-------|

Verse 
G|--------------------------------------------------------------------------|
D|--------------------------------------------------------------------------|
A|--------------------------------------------------------------------------|
E|--3-3-3-3-3-3-3-0-1-2-3-3-3-3-3-3-3-12\-3-3-3-3-3-3-3-0-1-2-3-3-3-3-3-3-3-|

G|--------------------------------------------------------------------------|
D|--------------------------------------------------------------------------|
A|--------------------------------------------------------------------------|
E|12\-3-3-3-3-3-3-3-0-1-2---------------------------------------------------|

Chorus 
G|----5---5---7---7---8---8---10---10-------------------5---5---7---7---8--8|
D|--------------------------------------------------------------------------|
A|--3---3---5---5---6---6---8----8--------------------3---3---5---5---6---6-|
E|------------------------------------3-3-3-3-3-3-3-3-----------------------|

G|--10---10-------------------5---5-----------------------------------------|
D|------------------------------------7---7----15----15----15----15---------|
A|8----8--------------------3---3-------------------------------------------|
E|----------3-3-3-3-3-3-3-3---------5---5---13----13----13----13------------|

G|-------------------5---5--------------------------------------------------|
D|---------------------------7---7----15----15----15----15------------------|
A|-----------------3---3----------------------------------------------------|
E|-3-3-3-3-3-3-3-3---------5---5---13----13----13----13----3-3-3-3-3-3-3-3--|

Verse 2
G|-------------------------------------------5---5---7---7---8---8---10---10|
D|--------------------------------------------------------------------------|
A|-----------------------------------------3---3---5---5---6---6---8----8---|
E|--3-3-3-3-3-3-3-0-1-2-3-3-3-3-3-3-3-12-\----------------------------------|

G|--------------------5---5---7---7---8---8---10---10-----------------------|
D|--------------------------------------------------------------------------|
A|------------------3---3---5---5---6---6---8----8--------------------------|
E|--3-3-3-3-3-3-3-3-----------------------------------3-3-3-3-3-3-3-3-------|

Bridge
G|--------------------|
D|--------------------| X4
A|--------------------|
E|--3--33--3--33-3-3--|

Chorus

Outro
G|--------------------------------------------------------------------------|
D|--------------------------------------------------------------------------|
A|--------------------------------------------------------------------------|
E|--3-3-3-3-3-3-3-0-1-2-3-3-3-3-3-3-3-12\-----------------------------------|


| /  slide up
| \  slide down
| h  hammer-on
| p  pull-off
| ~  vibrato
| +  harmonic
| x  Mute note
===============================================================================
            
Tabs too difficult? Try these video lessons and learn fast.




comments powered by Disqus
↑ Back to top | Tablatures and chords are parodies/interpretations of the original songs. You may use it for private study, scholarship, research or language learning purposes only