» » »

Danger! High Voltage Bass tabs (ver.1)

Artists:  A B C D E F G H I J K L M N O P Q R S T U V W X Y Z # 

Danger! High Voltage Bass tabs (ver.1)

Electric Six
Rating:
0/5 (0 votes)

Hard to play? Try these video lessons and learn fast.
                G----------------------------------------|
D----------------------------------------|
A--------------------5-5-5-5-5-5-5-5-5-5-|
E--7-7-7-7-7-7-7-7-----------------------|

G-----------------------------------|
D-----------------------------------|
A--7-7-7-7-7-7-7-7-2-2-2-2----------|
E--------------------------4-4-5-5--|
repeat four times

G---------------------------|
D---------------------------|
A----------------5-5-5-5-5--|
E--7-7-7-7-7-7-7------------|

G----------------------------|
D----------------------------|
A-7-7-7-7-7-7-7-2-2----------|
E-------------------4-4-5-5--|
repeat twice

G-----------------------------------|
D-----------------------------------|
A-------------------5-5-5-5-5-5-5---|
E--7-7-7-7-7-7-7-7------------------|

G-----------------------------------|
D-----------------------------------|
A--7-7-7-7-7-7-7-7-2-2-2-2----------|
E--------------------------4-4-5-5--|
            
Hard to play? Try these video lessons and learn fast. | Correct




comments powered by Disqus
↑ Back to top | Tablatures and chords are parodies/interpretations of the original songs. You may use it for private study, scholarship, research or language learning purposes only