» » »

Electric Six, Danger! High Voltage Tabs (ver.2)

Artists:  A B C D E F G H I J K L M N O P Q R S T U V W X Y Z # 

Danger! High Voltage Tabs (ver.2)

Electric Six Tabs
 Rating:
4/5 (4 votes)
Danger! High Voltage lessons Tabs too difficult? Try these video lessons and learn fast
                e|-------------------------------------------------------------------------------------------------------------------------|
B|-------------------------------10--10-------10---10-12-12-12-12~---12-15-12-15--12-15p17-15p17-12-12----12-15-12--12-15-12
G|-9p7-----------7-7-7---7-9-9/11--11--11~--11--11-----------------14-----------14----------------------14--------14-------|
D|-----9-9~-7-9--7-9-9--9--------------------------------------------------------------------------------------------------|
A|-------------------------------------------------------------------------------------------------------------------------|
E|-------------------------------------------------------------------------------------------------------------------------|

e|-------------------------------------------------------------------------------------------------------------------------|
B|--15-17b18-17b18-17b18-17b18-15--12~--------12--15--12--------12--17p15-17p15-17p15~-15-12-------------------------------|
G|----------------------------------------14----------------14-------------------------------------------------------------|
D|-------------------------------------------------------------------------------------------------------------------------|
A|-------------------------------------------------------------------------------------------------------------------------|
E|-------------------------------------------------------------------------------------------------------------------------|

e|-------------------------------------------------------------------------------------------------------------------------|
B|--10h12p10------10--10~--10----------------------------------------------------------------------------------------------|
G|----------11-11---11-------11-9-7h9p7------------------------------------------------------------------------------------|
D|--------------------------------------9----------------------------------------------------------------------------------|
A|-------------------------------------------------------------------------------------------------------------------------|
E|-------------------------------------------------------------------------------------------------------------------------|
            
Submit corrections

comments powered by Disqus
↑ Back to top | Electric Six Tabs for Danger! High Voltage. Lyrics for acoustic guitar and electric guitar. Tablatures and chords are parodies/interpretations of the original songs. You may use it for private study, scholarship, research or language learning purposes only