» » »

Dance Commander Bass tabs (ver.2)

Artists:  A B C D E F G H I J K L M N O P Q R S T U V W X Y Z # 

Dance Commander Bass tabs (ver.2)

Electric Six
Rating:
0/5 (0 votes)

Tabs too difficult? Try these video lessons and learn fast.
                -------------------------------------------------------------------------------
                             Dance Commander - Electric Six
-------------------------------------------------------------------------------
Album:Fire


Tuning:Standard

Intro/Chorus

G|---------------------------------------------------------------------------|
D|---------------------------------------------------------------------------|
A|---------------------------------------------------------------------------|
E|--2--2--XXX3--3/7--7XXX7--0--2--2--XXX3--3/7--7--7-7-7-7-7-7-7-0-----------|

G|---------------------------------------------------------------------------|
D|---------------------------------------------------------------------------|
A|--------------------------0--5--5--3-5-----------7--7--5-7-----------------|
E|--2--2--XXX3--3/7--7XXX7----------------0--3--5-------------5--------------|

G|---------------------------------------------------------------------------|
D|---------------------------------------------------------------------------|
A|---------------------------------------------------------------------------|
E|--2--2--XXX3--3/7--7--7-7---0--2--2--XXX3--3/7--7--7-7--0-2-3--------------|

G|---------------------------------------------------------------------------|
D|---------------------------------------------------------------------------|
A|---------------------------------------------------------------------------|
E|--2--2--XXX3--3/7--7XXX7--0--2--2--XXX3--3/7--7--7-7-7-7-7-7-7-7---13\-----|

Verse

"The Lines are drawn..."
G|------------------------------------|
D|------------------------------------| X3
A|------------------------------------|
E|--2-2-2-XXX3--3/7-7-7-7--XXX7-0-----|

"Let's get this party started..."
G|------------------------------------|
D|------------------------------------| X1
A|------------------------------------|
E|--2-2-2-XXX3--3/7-7-7-7--XXX0-2-3---|

"I went to the store..."
G|------------------------------------|
D|------------------------------------| X3
A|------------------------------------|
E|--2-2-2-XXX3--3/7-7-7-7--XXX7-0-----|

"Take your chances!"
G|---------------------------------------------|
D|---------------------------------------------| X1
A|---------------------------------------------|
E|--2-2-2-XXX3--3/7-7-7-7---/1919191919191919--|

Chorus

G|----------------------------------------------------------------------|
D|----------------------------------------------------------------------|
A|----------------------------------------------------------------------|
E|--2--2--XXX3--3/7--7XXX7--0--2--2--XXX3--3/7--7--7-7-7-7-7-7-7-0------|

G|----------------------------------------------------------------------|
D|----------------------------------------------------------------------|
A|--------------------------0--5--5--3-5-----------7--7--5-7------------|
E|--2--2--XXX3--3/7--7XXX7----------------0--3--5-------------5---------|


"I wanna make it last foreva"

G|----------------------------------------------------------------------|
D|----------------------------------------------------------------------|  X2
A|--2-2-XXX2--0--2-2-XXX2--0-------------------------0------------------|
E|----------------------------3-3-XXX3--3-5-5--2-2-2--------------------|


G|----------------------------------------------------------------------|
D|----------------------------------------------------------------------|  X1
A|--2-2-0-2p0-2---0-2-2-0-2p0-2---0------------------------0------------|
E|--------------2---------------2---3-3-XXX3--3-5-5--2-2-2--------------|


G|----------------------------------------------------------------------|
D|----------------------------------------------------------------------|  X1
A|--2-2-XXX2--0--2-2-XXX2--0--------------------------------------------|
E|----------------------------3-3-XXX3--3-5-5--2-2-2--------------------|

Chorus/Outro

G|----------------------------------------------------------------------|
D|----------------------------------------------------------------------|  X2
A|----------------------------------------------------------------------|
E|--2--2--XXX3--3/7--7--7-7---0--2--2--XXX3--3/7--7--7-7--0-2-3---------|


G|----------------------------------------------------------------------|
D|----------------------------------------------------------------------|  X1
A|----------------------------------------------------------------------|
E|--2--2--XXX3--3/7--7--7-7-7--0--2--2--XXX3--3/7-----------------------|


| /  slide up
| \  slide down
| h  hammer-on
| p  pull-off
| ~  vibrato
| +  harmonic
| x  Mute note
===============================================================================
            
Tabs too difficult? Try these video lessons and learn fast.


comments powered by Disqus
↑ Back to top | Tablatures and chords are parodies/interpretations of the original songs. You may use it for private study, scholarship, research or language learning purposes only