» » »

Band In Hell Bass tabs (ver.1)

Artists:  A B C D E F G H I J K L M N O P Q R S T U V W X Y Z # 

Band In Hell Bass tabs (ver.1)

Electric Six
Rating:
0/5 (0 votes)
Tabs too difficult? Try these video lessons and learn fast.
                -------------------------------------------------------------------------------
                           The Band In Hell - Electric Six
-------------------------------------------------------------------------------

Tuning:Standard

Intro
G|------------|
D|------------| X4
A|--2--2---0--|
E|-------2----|

Verse
G|-------------------------------------------|
D|-------------------------------------------| X2
A|--2--2---0-2--2-4-0--2--2---0-2--2-0-0-0-0-|
E|-------2------------------2----------------|

G|--------------------------------------------------------------------------|
D|--------------------------------------------------------------------------|
A|--2--2---0-2--2-44-0--2--2---0-2--2-0-0-0-0--2--2---0-2--2-4-0------------|
E|-------2-------------------2----------------------2-----------------------|

G|--------------------------------------------------------------------------|
D|--------------------------------------------------------------------------|
A|--2--2---0-2-2-0-0--2--2---0-2--2-4-0--2--2---0-2--2-0--0-----------------|
E|-------2-----------------2------------------2-----------------------------|

G|--------------------------------------------------------------------------|
D|--------------------------------------------------------------------------|
A|--2--2---0-2--2-4-0--2--2---0-2-4-4-4-4-4-4-4-----------------------------|
E|-------2------------------2-----------------------------------------------|

Chorus
G|--------------------------------------------------------------------------|
D|--------------------------------------------------------------------------|
A|--5-5-5-5-5-5-5-5-----------------2--2---0-2---4-4-4-4-4-5-5-5-5-5-5-5-5--|
E|------------------0-0-0-0-0-0-0-0------2----------------------------------|

G|-----------------------------------|
D|-----------------------------------|
A|--------------------------5-5-5-0--|
E|--0-0-0-0-0-0-0-0-3-3-3-3----------|

Intro X4

Verse 2
G|-------------------------------------------|
D|-------------------------------------------| X3
A|--2--2---0-2--2-4-0--2--2---0-2--2-0-0-0-0-|
E|-------2------------------2----------------|

G|-----------------------------------------------|
D|-----------------------------------------------|
A|--2--2---0-2--2-4-0--2--2---0-2-4-4-4-4-4-4-4--|
E|-------2------------------2--------------------|

Chorus X1

Intro X3

G|------------------|
D|------------------|
A|--2-2--2-4-4-4-4--|
E|------------------|

Solo

G|--------------------------------------------------------------------------|
D|--------------------------------------------------------------------------|
A|--5-5-5-5/12-14-12\-------------------------5-------------5---------------|
E|--------------------5-5-5-5/10-12-10\-7-5h7---7p5-7-7-5h7---7p5-----------|

G|--------------------------------------------------------------------------|
D|--------------------------------------------------------------------------|
A|--5-5-5-5/12-14-12\-------------------------------------------------------|
E|--------------------5-5-5-5/10-12-10\-2-2-2-2-2-2-2-2-2-2-2-2-2-2-2-2-----|

Outro
G|--------------------------------------------------------------------------|
D|--------------------------------------------------------------------------|
A|--2--2---0-2--2-4-0--2--2---0-2--2-0-0-0-0--2--2---0-2--2-4-0--2--2---0---|
E|-------2------------------2----------------------2------------------2-----|

G|------------------|
D|------------------|
A|--2-4-4-4-4-4-4-4-|
E|------------------|

G|--------------------------------------------------------------------------|
D|--------------------------------------------------------------------------|
A|--5-5-5-5-5-5-5-5-----------------2--2---0-2---4-4-4-4-4-5-5-5-5-5-5-5-5--|
E|------------------0-0-0-0-0-0-0-0------2----------------------------------|

G|---------------------------------------------------------------|
D|---------------------------------------------------------------|
A|--------------------------5-5-5-5-2----------------------------|
E|--0-0-0-0-0-0-0-0-3-3-3-3----------------------------7---------|



| /  slide up
| \  slide down
| h  hammer-on
| p  pull-off
| ~  vibrato
| +  harmonic
| x  Mute note
===============================================================================
            
Tabs too difficult? Try these video lessons and learn fast.


comments powered by Disqus
↑ Back to top | Tablatures and chords are parodies/interpretations of the original songs. You may use it for private study, scholarship, research or language learning purposes only