» » »

08 - Gay Bar Tabs (ver.1)

Artists:  A B C D E F G H I J K L M N O P Q R S T U V W X Y Z # 

08 - Gay Bar Tabs (ver.1)

Electric Six
Rating:
0/5 (0 votes)

Hard to play? Try these video lessons and learn fast.
                Song     Gay Bar
Band     Electric Six
Album    Fire
Tuning   Standard (E A D G B e)

Legend

wwww = Whammy Bar depressed
d = down (strumming)
u = up (strumming)

This is a correct version of Gay Bar that I tabbed w/ my Guitar Teacher.



Verse (First 2 times Guitar only) (d d udu dud dududu)

----------------|----------------|
----------------|----------------|
----------------|----------------|
-------3-5-3----|----------------|  x7
-5---5------5-4-|-3--3-0-0-3-4-0-|
----------------|----------------|


Pause for 1 Measure


----------------|----------------|
----------------|----------------|
----------------|----------------|
-------3-5-3----|----------------|  x3
-5---5------5-4-|-3-3--0-0-3-4-0-|
----------------|----------------|


Chorus Thing (d dududu d du dud)

----------------|---------------|
----------------|---------------|
-7--7-7-7-7-7-7-|-5--5-5-5-5-5--|
-7--7-7-7-7-7-7-|-5--5-5-5-5-5--|   x4
-5--5-5-5-5-5-5-|-3--3-3-3-3-3--|
----------------|---------------|


Chorus Thing Part 2 (d dududu d du dud)

--------------------------|---------------------|
--------------------------|---------------------|
-14--14-14-14-14-14-14-14-|---------------------|
-14--14-14-14-14-14-14-14-|-14--14-14-14-14-14--|  x4
-12--12-12-12-12-12-12-12-|-14--14-14-14-14-14--|
--------------------------|-12--12-12-12-12-12--|


Verse (d d udu dud dududu)

----------------|----------------|
----------------|----------------|
----------------|----------------|
-------3-5-3----|----------------|  x3
-5---5------5-4-|-3-3--0-0-3-4-0-|
----------------|----------------|


End of 1st Half

-------------|----------------|---|
-------------|----------------|---|
-------------|----------------|-5-|
-7--7--7--7--|--5--5--5-5-5-5-|-5-|
-7--7--7--7--|--5--5--5-5-5-5-|-3-|
-5--5--5--5--|--3--3--3-3-3-3-|---|


2 measure pause


Verse (First 2 times Guitar only) (d d udu dud dududu)


----------------|----------------|
----------------|----------------|
----------------|----------------|
-------3-5-3----|----------------|  x7
-5---5------5-4-|-3-3--0-0-3-4-0-|
----------------|----------------|


Bridge Thing (d d d d d d dudu)

-------------|----------------|
-------------|----------------|
-------------|----------------|
-7--7--7--7--|--5--5--5-5-5-5-|
-7--7--7--7--|--5--5--5-5-5-5-|
-5--5--5--5--|--3--3--3-3-3-3-|


Chorus Thing w/clapping (d dududu d du dud)

----------------|---------------|
----------------|---------------|
-7--7-7-7-7-7-7-|-5--5-5-5-5-5--|
-7--7-7-7-7-7-7-|-5--5-5-5-5-5--|   x4
-5--5-5-5-5-5-5-|-3--3-3-3-3-3--|
----------------|---------------|


Pre-Part 2 Thing w/clapping (d dududu d du dud)

-----------------------|--------------|
-----------------------|--------------|
-11--11-11-11-11-11-11-|-9--9-9-9-9-9-|
-11--11-11-11-11-11-11-|-9--9-9-9-9-9-|   x4
-9---9--9--9--9--9--9--|-7--7-7-7-7-7-|
-----------------------|--------------|


Chorus Thing Part 2 (d dududu d du dud)

--------------------------|---------------------|
--------------------------|---------------------|
-14--14-14-14-14-14-14-14-|---------------------|
-14--14-14-14-14-14-14-14-|-14--14-14-14-14-14--|  x4
-12--12-12-12-12-12-12-12-|-14--14-14-14-14-14--|
--------------------------|-12--12-12-12-12-12--|



End Note (d)

----------------|---|
----------------|---|
----7wwwwwwwww--|-7-|
---7wwwwwwwwww--|-7-|
--5wwwwwwwwwww--|-5-|
----------------|---|

I think that's it. If you have any corrections I will try to correct them. Thanx.
            
Hard to play? Try these video lessons and learn fast. | Correct




comments powered by Disqus
↑ Back to top | Tablatures and chords are parodies/interpretations of the original songs. You may use it for private study, scholarship, research or language learning purposes only