» » »

Electrico, I Want You Bass tabs (ver.1)

Artists:  A B C D E F G H I J K L M N O P Q R S T U V W X Y Z # 

I Want You Bass tabs (ver.1)

Electrico Tabs
 Rating:
4/5 (4 votes)
I Want You lessons Tabs too difficult? Try these video lessons and learn fast
                I WANT YOU by ELECTRICO frm MUCH MORE INSIDE

|----6-------------6-----------6------------------------------|
|--66-6--6\7\5\6-66--6-6\7\5-66-6--6\7\5\6-66-12-11-9--6-6\7\5| x 2
|------6--------------6----------6----------------------6-----|
|-------------------------------------------------------------|

|----6-------------6-----------6-----------------------------------------|
|--66-6--6\7\5\6-66--6-6\7\5-66-6--6\7\5\6-66-12-11-9-11-----------------| 
|------6--------------6----------6----------------------11-11-12-11-10-11|
|------------------------------------------------------------------------|
chorus
|-------------------------------------------------------------|
|-4444444444444444-7777777777777h97---------------------------| x 2
|----------------------------------777777-11-11-11-11-12x14---|
|-------------------------------------------------------------|

|---6-------------66------------------------------------------|
|-66-6--6\7\5\6-66--6-----------------------------------------|
|-----6-------------------------------------------------------|
|-------------------------------------------------------------|

|----6-------------66----------6---------------------------------|
|--66-6--6\7\5\6-66--6-6\7\5-66-6--6\7\5\6-66-10/11-13-11-6-6\7\5| 
|------6--------------6----------6-------------------------6-----|
|----------------------------------------------------------------|

|----6-------------6-----------6-----------------------------------------|
|--66-6--6\7\5\6-66--6-6\7\5-66-6--6\7\5\6-66-12-11-9-11-----------------| 
|------6--------------6----------6----------------------11-11-12-11-10-11|
|------------------------------------------------------------------------|

chorus
|-------------------------------------------------------------|
|-4444444444444444-7777777777777h97---------------------------| x 2
|----------------------------------777777-11-11-11-11-12x14---|
|-------------------------------------------------------------|

|-------------------------------------------------------------------|
|-44444444--------44444444--------444444444---------666666666666-6-6|
|---------77777777--------77777777---------77777777-----------------|
|-------------------------------------------------------------------|

|--------------------------------------------------------------------------------|
|-11-11----11-11----11-11-9-11-9-11----------------11-11-9-11-9-11---------------|
|-------11-------11----------------11-11-9-11-9-11----------------11-11-9-11-9-11|
|--------------------------------------------------------------------------------|

|-------------------------------------------------------------|
|-4444444444444444-7777777777777h97---------------------------| x 2
|----------------------------------777777-11-11-11-11-12x14---|
|-------------------------------------------------------------|

|---------------------------|
|---------------------------| x 3
|777777-11-11-11-11-12x14---|
|---------------------------|

|---6-----------------------|
|-66-6-6\7\5\6--------------|
|-----6-------4-------------|
|---------------------------|


Enjoy Local MUSIC

done by Roland of redemption
            
Submit corrections

comments powered by Disqus
↑ Back to top | Electrico Bass for I Want You. Lyrics for acoustic guitar and electric guitar. Tablatures and chords are parodies/interpretations of the original songs. You may use it for private study, scholarship, research or language learning purposes only