» » »

Yours Truly 2095 Tabs (ver.1)

Artists:  A B C D E F G H I J K L M N O P Q R S T U V W X Y Z # 

Yours Truly 2095 Tabs (ver.1)

Electric Light Orchestra
Rating:
0/5 (0 votes)

Tabs too difficult? Try these video lessons and learn fast.
                YOURS TRULY, 2095
Bassist: Kelly Groucutt

Begin at 0:03

CHORUS (x2)
G|---------------------------------------------------------------|
D|---------------------------------------------------------------|
A|0-0-0-0-0-0-0-0-2-2-2-2-2-2-2-2-3-3-3-3-3-3-3-3-5-5-5-5-5-5-5-5| 
E|---------------------------------------------------------------|

VERSE (x3)
G|------------5-4------------------------------------------------|
D|7-7-7-7-7-7-----------------7---------------7---------------5--|
A|----------------7-7-7-7-7-7---7-5-5-5-5-5-5---5-7-7-7-7-7-7---7|
E|---------------------------------------------------------------|

PRE-VERSE (x1)
G|------------------------------------|
D|---------------------------------5--|
A|0~-----2~-----3~-----5-5-5-5-5-5---7|
E|------------------------------------|

VERSE (x2)

CHORUS (x2)

VERSE (x2)

PRE-VERSE (x2)

VERSE (x2)

CHORUS (x2)

"Is That What You Want?" (x4)
G|-------|
D|-------|
A|10-10/-|
E|-------|

Then rest until

VERSE (x2)

PRE-VERSE (x1)

VERSE (x2)

CHORUS (x1)

Then keep playing
G|-----------------------|
D|-----------------------|
A|10-10-10-10-10-10-10-10|
E|-----------------------|
Until 3:08

ENDING
G|-----------------|
D|5---8---10-------|
A|--5---8----10-5--|
E|----------------5|
            
Tabs too difficult? Try these video lessons and learn fast.


comments powered by Disqus
↑ Back to top | Tablatures and chords are parodies/interpretations of the original songs. You may use it for private study, scholarship, research or language learning purposes only