>
 >
Showdown 3

Showdown 3 Guitar Tabs

Electric Light Orchestra - Showdown 3 chords, tabs, tablatures, lyrics

Guitar lessons | Add/correct | Request | Top 50 tabs Artists:  A B C D E F G H I J K L M N O P Q R S T U V W X Y Z 0-9

Showdown 3 Guitar Tabs – Electric Light Orchestra

CD, Sheet music, Poster

Do you like Showdown 3? Share with your friends now
ChordsChords v2TabsTabs v2Tabs v3Tabs v4UkuleleUkulele v2
I have searched all over the internet but i could never find this solo tab. Its not 
but i am sure that you will be able to figure out the wrong notes.


e|----------------------------------------------------------------------------------|
B|------------------------------------------------------------4--------6b-----------|
G|-----3---------5--------3-----------------3-------5-------------------------------|
D|--------------------------------5-------------------------------------------------|
A|----------------------------------------------------------------------------------|
E|----------------------------------------------------------------------------------|

e|------------------------------------------------------------------------------------|
B|-------6b------6------4-----------------4---------4--------4------------------------|
G|------------------------------5---------------5-----5---------5------3--------------|
D|------------------------------------------------------------------------------------|
A|------------------------------------------------------------------------------------|
E|------------------------------------------------------------------------------------|

e|--------------------------------------------------------------------|
B|--------------6b-------6b------4----6----4------6b----4----6-----4--|
G|--------------------------------------------------------------------|
D|--------------------------------------------------------------------|
A|-----5--------------------------------------------------------------|
E|--------------------------------------------------------------------|

e|--------6h4-----------------------------------4h6----------------------------------|
B|-----------------5h3------------------3h5------------------------------------------|
G|----------------------------5------------------------------------------------------|
D|-----------------------------------------------------------------------------------|
A|-----------------------------------------------------------------------------------|
E|-----------------------------------------------------------------------------------|


There it is, i think that that is the first tab on the internet for this solo!!!





Comments


Popular Electric Light Orchestra tabs & chords
Rock And Roll Is King Bass Tabs
I'm Alive 1 Chords
Indian Queen Chords
Rock N Roll Is King 1 Chords
So Serious Chords
Sweet Is The Night Chords
Strange Magic Tabs
Bluebird Ukulele
In My Own Time Ukulele
Nellie Takes Her Bow Ukulele


Song lyrics



↑ Back to top | Tablatures and chords are parodies/interpretations of the original songs. You may use it for private study, scholarship, research or language learning purposes only
© 2014 AZChords.com Contact us | Privacy policy | DMCA | Add/correct tabs | Request tabs | Top 50 tabs