>
 >
Rock N Roll Is King

Rock N Roll Is King Guitar Tabs

Electric Light Orchestra - Rock N Roll Is King chords, tabs, tablatures, lyrics

Guitar lessons | Add/correct | Request | Top 50 tabs Artists:  A B C D E F G H I J K L M N O P Q R S T U V W X Y Z 0-9

Rock N Roll Is King Guitar Tabs – Electric Light Orchestra

CD, Sheet music, Poster

Do you like Rock N Roll Is King? Share with your friends now
TabsUkulele
Electric Light Orchestra 1983 Secret Messages Album

Intro:
-----------------------------------------------------|
-----------------------------------------------------|
-----------------------------------------------------|
-----------------------------------------------------|
-----------------------------------------------------|
---4-b-(5)-5-5-5-5-5-5------4-b-(5)-5-5-5-5-5-5------|


   A (Riff 1)         X4
----------------------------|
----------------------------|
----------------------------|
---2-2-4-4-2-2-4-4----------|
---0-0-0-0-0-0-0-0----------|
----------------------------|


For Verse 1:

   A (Riff 1)     X6        E  (Riff 2)    X2      D  (Riff 3)   X2
----------------------------------------------------------------------------|
----------------------------------------------------------------------------|
---------------------------------------------------2-2-4-4-2-2-4-4----------|
---2-2-4-4-2-2-4-4---------------------------------0-0-0-0-0-0-0-0----------|
---0-0-0-0-0-0-0-0----------2-2-4-4-2-2-4-4---------------------------------|
----------------------------0-0-0-0-0-0-0-0---------------------------------|


   A (Riff 1)    X3         E  (Riff 2)    X1        A (Riff 1)  X2
----------------------------------------------------------------------------|
----------------------------------------------------------------------------|
----------------------------------------------------------------------------|
---2-2-4-4-2-2-4-4-----------------------------------2-2-4-4-2-2-4-4--------|
---0-0-0-0-0-0-0-0----------2-2-4-4-2-2-4-4----------0-0-0-0-0-0-0-0--------|
----------------------------0-0-0-0-0-0-0-0---------------------------------|


       A
Well...listen everybody let me tell you 'bout the rock 'n' roll
                                                        E
Ah ..feel that rhythm and it's really gonna thrill your soul
D                        A
Come along with me, to a land of make believe
                            E                 A
She said wamalama bamalama, rock 'n' roll is king

Verse 2: (Same as Verse 1 except the last riff 1 is played once)

    A
She loves that rock 'n' roll and she plays it all night long
                                                        E
That's all she ever tells me when I call her on the telephone
         D                              A
She says feel that jumpin' beat, and to get up on your feet
                            E                A (one riff 1)
She said wamalama bamalama, rock 'n' roll is king


Break:

-----------------------------|
-----------------------------|
-----------------------------|
-----------------------------|
--0---0---2---4--------------|
-----------------------------|


Bridge: (Each chord play 8 alternate strums)

              D       A
Oh, let those guitars play
         E            A
Play for me, play for me
             D         A
Oh, let that song ring out
       B7                E (one hit)
That's how it's meant to be


Verse 3:
         A
Well, it rolls like a train that's comin' on down the track
                                                   E
She rolled over Beethoven and she gave Tchaikovsky back
         D                                 A
Ah. .she loves that drivin' beat, she goes dancin' on down the street
                            E7       E       A
She said wamalama bamalama, rock 'n' roll is king


Instrumental Break:

   A (Riff 1)     X4        D  (Riff 3)   X2
----------------------------------------------------------------------5---5-----|
------------------------------------------------------------------7-----7-------|
----------------------------2-2-4-4-2-2-4-4------------5--b--6------------------|
---2-2-4-4-2-2-4-4----------0-0-0-0-0-0-0-0-------------------------------------|
---0-0-0-0-0-0-0-0--------------------------------0-----------------------------|
--------------------------------------------------------------------------------|


   D  (Riff 2)    X2        A (Riff 1)    X1        F#5
------------------------------------------------------------------------------2----------|
-----------------------------------------------------------------------------------2-----|
---2-2-4-4-2-2-4-4-----------------------------------------------------------------------|
---0-0-0-0-0-0-0-0-----------2-2-4-4-2-2-4-4---------------------------------------------|
-----------------------------0-0-0-0-0-0-0-0---------4-4-4-4-4-4-4-4-----0---------------|
-----------------------------------------------------2-2-2-2-2-2-2-2---------------------|


                                                 To Bridge 2:
---------0-----0----------------2---2-------------------------------------|
-------------3-----------2---2--------------------------------------------|
--------------------------------------------------------------------------|
--------------------------------------------------------------------------|
--------------------0-----------------------------0---0---2---4-----------|
----0---------------------------------------------------------------------|


Bridge 2:
              D       A
Oh, let those guitars play
         E            A
Play for me, play for me
             D         A
Oh, let that song ring out
       B7                E  (one hit)
That's how it's meant to be

Verse 4:

      A
Well, when she comes around and I'm listenin' to the radio
                                                             E
She says you can't do that 'cause all I wanna do is rock 'n' roll
    D                              A
Now here I'm gonna stay where that music starts to play
                            E                 A
She said wamalama bamalama, rock 'n' roll is king
                           E                 A  (one hit)
Oh yeah wamalama bamalama, rock 'n' roll is king
           A             E             A   (one hit)
Ah ah wamalama bamalama, rock 'n' roll is king
             A              E                 A  (one hit)
Ooo yeah wamalama bamalama, rock 'n' roll is king
          A                 E                 *
She said wamalama bamalama, rock 'n' roll is king


    * On King play            A  (hold for end chord)
--------------------0--------------------------------|
--------2---3-----------------2----------------------|
----------------2-------------2----------------------|
------------------------------2----------------------|
----0-------------------------0----------------------|
-----------------------------------------------------|





Comments


Popular Electric Light Orchestra tabs & chords
Midnight Blue Bass Tabs
Letter From Spain Chords
Livin' Thing Chords
Strange Magic Chords
Mr Blue Sky 2 Tabs
Showdown 2 Tabs
Just For Love Ukulele
Letter From Spain Ukulele
Secret Messages Ukulele
Waterfall Ukulele


Song lyrics



↑ Back to top | Tablatures and chords are parodies/interpretations of the original songs. You may use it for private study, scholarship, research or language learning purposes only
© 2014 AZChords.com Contact us | Privacy policy | DMCA | Add/correct tabs | Request tabs | Top 50 tabs