» » »

Midnight Blue Bass tabs (ver.1)

Artists:  A B C D E F G H I J K L M N O P Q R S T U V W X Y Z # 

Midnight Blue Bass tabs (ver.1)

Electric Light Orchestra
Rating:
0/5 (0 votes)

Hard to play? Try these video lessons and learn fast.
                +++++++++++++++++++++++++++++++++++++++++++
| Electric Light Orchestra- Midnight Blue |
+++++++++++++++++++++++++++++++++++++++++++


"I want to touch you but the night becomes the day..."

Tuning: EADG


Verse
"But what I see is so much more than I can say..."
1.
G|------------------------------------------------------|
D|-3~---1~---0~--------5~------------3~-----------------|
A|---------------------------1~--3~------------1~--3~---|
E|------------------------------------------------------|

"I see you crying now you've found a lot of pain..."
2.
G|---------------------------------------------------------|
D|-3~---3-3~---3-------------------------------------------|
A|---------------0~---0-0~---0---------------1~---1-3~---3-|
E|-----------------------------3~---3-3~---3---------------|

"But whats the difference..."
3.
G|--------------------------------------------------------------------------|
D|-3~---3-1~---1-0~---0-0~---0-5~---5---------3~---3-3~---3-3~---3-3~---030-|
A|------------------------------------1~--3~---------------------------3----|
E|--------------------------------------------------------------------------|

Chorus
"I will love you tonight..."
4.
G|------------------------------------------------------------|
D|-3~---3---------------------030-3~---3----------------------|
A|--------0~---0-1~---1-3~---3-----------0~---0-1~---1-1~---1-|
E|------------------------------------------------------------|

"Loving you Im feeling midnight blue..."
5.
G|---------------------------------------------------------|
D|-3~---3-0~---0---------------3~---3-3~---3-3~---3-3~---3-|
A|---------------1~---1-3~---3-----------------------------|
E|---------------------------------------------------------|

Verse
"I see you standing there..."
6.
G|---------------------------------------------------------|
D|-3~---3-3~---3-------------------------------------------|
A|---------------0~---0-0~---0---------------1~---1-3~---3-|
E|-----------------------------3~---3-3~---3---------------|

"I count the words..."
7.
G|--------------------------------------------------------------------------|
D|-3~---3-1~---1-0~---0-0~---0-5~---5---------3~---3-3~---3-3~---3-3~---030-|
A|------------------------------------1~--3~---------------------------3----|
E|--------------------------------------------------------------------------|

Chorus
"I will love you tonight..."
8.
G|---------------------------------------------------------------|
D|-3~---3---------------------030-3~---3----------------------0--|
A|--------0~---0-1~---1-3~---3-----------0~---0-1~---1-1~---13-1-|
E|---------------------------------------------------------------|

"Loving you Im feeling midnight blue..."
9.
G|---------------------------------------------------------|
D|-3~---3-0~---0---------------3~---3-3~---3-3~---3-3~---3-|
A|---------------1~---1-3~---3-----------------------------|
E|---------------------------------------------------------|

Verse
"Cant you feel the love that Im offering you..."
10.
G|---------------------------------------------------------|
D|-3~---3-3~---3-------------------------------------------|
A|---------------0~---0-0~---0---------------1~---1-3~---3-|
E|-----------------------------3~---3-3~---3---------------|

"Its only one, and one is true..."
11.
G|--------------------------------------------------------------------------|
D|-3~---3-1~---1-0~---0-0~---0-5~---5---------3~---3-3~---3-3~---3-3~---030-|
A|------------------------------------1~--3~---------------------------3----|
E|--------------------------------------------------------------------------|

Chorus
"I see beautiful days..."
12.
G|---------------------------------------------------------------|
D|-3~---3---------------------030-3~---3----------------------0--|
A|--------0~---0-1~---1-3~---3-----------0~---0-1~---1-1~---13-1-|
E|---------------------------------------------------------------|

"Loving you everything's midnight blue..."
13.
G|--------------------------------------------|
D|-3~---3-0~---0---------------3~---3---------|
A|---------------1~---1-3~---3--------1~--3~--|
E|--------------------------------------------|

"I will love you tonight..."
14.
G|---------------------------------------------------------------|
D|-3~---3---------------------030-3~---3----------------------0--|
A|--------0~---0-1~---1-3~---3-----------0~---0-1~---1-1~---13-1-|
E|---------------------------------------------------------------|

"Loving you Im feeling midnight blue..."
15.
G|--------------------------------------------|
D|-3~---3-0~---0---------------3~---3---------|
A|---------------1~---1-3~---3--------1~--3~--|
E|--------------------------------------------|

Play until song fades

Please rate thanks!!

Lyrics:

I see the lonely road that leads so far away,
I see the distant lights that left behind the day
But what I see is so much more than I can say
And I see you midnight blue.

I see you cryin' now you've found a lot of pain,
And what you're searchin' for can never be the same,
But what's the difference cos' they say what's in a name.
And I see you midnight blue.


I will love you tonight,and I will stay
By your side,lovin' you,I'm feelin' midnight blue.

I see you standing there far out along the way,
I want to touch you but the night becomes the day,
I count the words that I am never gonna say
And I see you midnight blue.

Can't you feel the love that I'm offering you,
Can't you see how it's meant to be,
Can't you hear the words that I'm saying to you,
Can't you believe like I believe,
It's only one and one it's true
Still I see you midnight blue.

I see beautiful days and I feel beautiful ways
Of loving you,everything's midnight blue.



+++++++++++
| Raileff |
+++++++++++
            
Hard to play? Try these video lessons and learn fast. | Correct




comments powered by Disqus
↑ Back to top | Tablatures and chords are parodies/interpretations of the original songs. You may use it for private study, scholarship, research or language learning purposes only