» » »

Electric Light Orchestra, Love Is Like Oxygen Tabs (ver.2)

Artists:  A B C D E F G H I J K L M N O P Q R S T U V W X Y Z # 

Love Is Like Oxygen Tabs (ver.2)

Electric Light Orchestra Tabs
 Rating:
4/5 (4 votes)
Love Is Like Oxygen lessons Tabs too difficult? Try these video lessons and learn fast
1
                On: 10/03/08

Intro (Play twice):
   F                        Dm                       Am
e|-------8~---------------|-------10~--------------|-------8--9~-----------|
B|----10------------------|----10------------------|----10-----------------|
G|-10---------------------|-10---------------------|-10--------------------|
D|------------------------|------------------------|-----------------------|
A|------------------------|------------------------|-----------------------|
E|------------------------|------------------------|-----------------------|
   1  +  2  +  3  +  4  +   1  +  2  +  3  +  4  +   1  +  2  +  3  +  4  +

^ A second guitar echoes what the first guitar plays in the last bar (the Am bar), if 
makes sense.

Chorus:
   A5            Ab5 G5            Ab5
e|-----------------|-----------------|
B|-----------------|-----------------|
G|-----------------|-----------------|
D|-7-x-x-7-x-x-7-6-|-5-x-x-5-x-x-5-6-|
A|-7-x-x-7-x-x-7-6-|-5-x-x-5-x-x-5-6-|
E|-5-x-x-5-x-x-5-4-|-3-x-x-3-x-x-3-4-|
   1 + 2 + 3 + 4 +   1 + 2 + 3 + 4 +

^ Repeat that over first two lines of the chorus, then play this over the next two lines:

   D5                C5                F5                D5      E5
e|-----------------|-----------------|-----------------|-----------------|
B|-----------------|-----------------|-6-x-x-6-x-x-6-x-|-----------------|
G|-7-x-x-7-x-x-7-x-|-5-x-x-5-x-x-5-x-|-5-x-x-5-x-x-5-x-|-7-------5-------|
D|-7-x-x-7-x-x-7-x-|-5-x-x-5-x-x-5-x-|-3-x-x-3-x-x-3-x-|-7-------5-------|
A|-5-x-x-5-x-x-5-x-|-3-x-x-3-x-x-3-x-|-----------------|-5-------7-------|
E|-----------------|-----------------|-----------------|-----------------|
   1 + 2 + 3 + 4 +   1 + 2 + 3 + 4 +   1 + 2 + 3 + 4 +   1 + 2 + 3 + 4 +

Verses:
Am      Em      Dm7       F
Time on my side; I got it all
Am           Em           Dm7     F
I heard that pride always comes before a fall
          Dm7          Em
There's a rumor goin' around the town.
F              Am
That you don't want me around.
Dm7               Em
I can't shake off my city blues.
F                     A#  E
 Everywhere I turn, I lose...

You have everything you need there for the song, I believe. Any queries or corrections 
whatever, leave a comment and I'll get back to you!

| /  slide up
| \  slide down
| h  hammer-on
| p  pull-off
| ~  vibrato
| +  harmonic
| x  Mute note
            
Submit corrections

comments powered by Disqus
↑ Back to top | Electric Light Orchestra Tabs for Love Is Like Oxygen. Lyrics for acoustic guitar and electric guitar. 1 Tablatures and chords are parodies/interpretations of the original songs. You may use it for private study, scholarship, research or language learning purposes only