» » »

Hold On Tight Bass tabs (ver.1)

Artists:  A B C D E F G H I J K L M N O P Q R S T U V W X Y Z # 

Hold On Tight Bass tabs (ver.1)

Electric Light Orchestra
Rating:
0/5 (0 votes)

Hard to play? Try these video lessons and learn fast.
                +++++++++++++++++++++++++++++++++++++++++++
| Electric Light Orchestra- Hold On Tight |
+++++++++++++++++++++++++++++++++++++++++++


"Accroches-toi a ton reve..."

Tuning: EADG



Intro
1.
G|-------------------------------------|
D|-------------------------------------|
A|---225575---225575---225575---225575-|
E|-33-------33-------33-------33-------|

Verse
"Hold on tight to your dream..."
2.
G|-------------------------------------------------------------------------|
D|---------------------------------------225575---225575----------552200---|
A|---225577-55332200---225575---001122-33-------33---------225575-------22-|
E|-33----------------33-------33-------------------------33----------------|

"When you see your ship go sailing..."
3.
G|----------------------------------------------------------------------------------|
D|---225575------------225575-------------------------------------------------------|
A|-33---------001122-33---------001122---225577-55332200-55332200---225575---225575-|
E|----------33----------------33-------33-------------------------33-------33-------|

"Its a long time to be gone..."
4.
G|-------------------------------------------------------------------------|
D|---------------------------------------225575---225575----------552200---|
A|---225577-55332200---225575---001122-33-------33---------225575-------22-|
E|-33----------------33-------33-------------------------33----------------|

"When you need a shoulder to cry on..."
5.
G|----------------------------------------------------------------------------------|
D|---225575------------225575-------------------------------------------------------|
A|-33---------001122-33---------001122---225577-55332200-55332200---225575---225575-|
E|----------33----------------33-------33-------------------------33-------33-------|

Chorus
"When you get so down that you cant get up..."
6.
G|------------------------------------------------------------------------------------|
D|-2-2-----2-2---------0-0-----0-0-2-2-----2-2----------------------------------------|
A|-----2-2-----2-2-0-0-----0-0---------2-2-----2-2-0-0-2-2-3-3-55555555-55555555-5555-|
E|------------------------------------------------------------------------------------|

Verse
"Accroches-toi a ton reve..."
7.
G|-------------------------------------------------------------------------|
D|---------------------------------------225575---225575-------------------|
A|---225577-55332200---225575---220022-33-------33---------225575---223355-|
E|-33----------------33-------33-------------------------33-------33-------|

"Quand tu vois ton bateau partir..."
8.
G|----------------------------------------------------------------------------------|
D|---225522------------225522-------------------------------------------------------|
A|-33---------001122-33---------001122---225577-55332200-55332200---225575---225575-|
E|----------33----------------33-------33-------------------------33-------33-------|

Chorus
"When you get so down that you cant get up..."
9.
G|-------------------------------------------------------------|
D|-2-2-----2-2---------0-0-----0-0-2-2-----2-2-----------------|
A|-----2-2-----2-2-0-0-----0-0---------2-2-----2-2-0-0-2-2-3-3-|
E|-------------------------------------------------------------|

10.
G|-------------------------------------|
D|-------------------------------------|
A|-55555555-55555555-55555555-55555555-|
E|-------------------------------------|

"Hold on tight to your dream..."
11.
G|-------------------------------------------------------------------------|
D|----------------------------552200-----225575---225522-------------------|
A|---225577-55332200---225575-------22-33-------33---------225575---220022-|
E|-33----------------33----------------------------------33-------33-------|

"When you see the shadows falling..."
12.
G|-------------------------------------------------------------------------|
D|---225575------------225575----------------------------------------------|
A|-33---------001122-33---------001122---225577-55332200---225575---225575-|
E|----------33----------------33-------33----------------33-------33-------|

"Hold on tight..."
13.
G|----------------------------------------------------------------------------------|
D|----------------------------------------------------------------------------------|
A|---225577-55332200---225575---225575---225577-55555555-55555555-55555555-55555555-|
E|-33----------------33-------33-------33-------------------------------------------|

Outro
14.
G|-------------------------------------------------|
D|-------------------------------------------------|
A|---225577-55332200---225575----------------------|
E|-33----------------33-------3-3~-----------------|

Please rate thanks!


Lyrics:

Hold on tight to your dream
Hold on tight to your dream
When you see your ship go sailing
When you feel your heart is breaking
Hold tight to your dream.

It's a long time to be gone
Time just rolls on and on
When you need a shoulder to cry on
When you get so sick of trying
Just hold tight to your dream

When you get so down that you can't get up
And you want so much but you're all out of luck
When you're so downhearted and misunderstood
Just over & over & over you could

Accroches-toi a ton reve
Accroches-toi a ton reve
Quand tu vois ton bateau partir
Quand tu sents -- ton coeur se briser
Accroches-toi a ton reve.

Hold on tight to your dream
Hold on tight to your dream
When you see the shadows falling
When you hear that cold wind calling
Hold on tight to your dream.

Oh, yeah
Hold on tight to your dream
Yeah, hold on tight...
To your dream. 




+++++++++++
| Raileff |
+++++++++++
            
Hard to play? Try these video lessons and learn fast. | Correct




comments powered by Disqus
↑ Back to top | Tablatures and chords are parodies/interpretations of the original songs. You may use it for private study, scholarship, research or language learning purposes only