» » »

Electric Light Orchestra, Here Is The News Bass tabs (ver.1)

Artists:  A B C D E F G H I J K L M N O P Q R S T U V W X Y Z # 

Here Is The News Bass tabs (ver.1)

Electric Light Orchestra Tabs
 Rating:
4/5 (4 votes)
Here Is The News lessons Tabs too difficult? Try these video lessons and learn fast
1
                -------------------------------------------------------------------------------
-------------------------------------------------------------------------------


A little known but great song from ELO's 'Time' album. 

Tuning: EADG (Standard)

No bass through synth intro

Intro (0:27)

G|--------------------------------------------------------------|
D|-----------3(x8)---------5(x8)---------3(x8)---------3(x8)----|
A|----0(x8)---------3(x8)---------0(x8)---------5(x8)-----------|
E|--------------------------------------------------------------|

Verse 1

G|--------------------------------------------------------------------------|
D|----7(x8)--3(x8)---------5(x4)----------------3(x8)---------5(x4)---------|
A|------------------3(x8)---------5(x4)--0(x8)---------3(x8)---------5(x4)--|
E|--------------------------------------------------------------------------|

G|--------------------------------|
D|----------3(x8)--------3(x8)----|
A|----0(x8)--------5(x8)----------|
E|--------------------------------|

G|--------------------------------------------------------------------------|
D|----7(x8)--3(x8)---------5(x4)----------------3(x8)---------5(x4)---------|
A|------------------3(x8)---------5(x4)--0(x8)---------3(x8)---------5(x4)--|
E|--------------------------------------------------------------------------|

G|---------------------------------|
D|----------3(x8)------------------|
A|----0(x8)--------5(x8)--1(x8)----|
E|---------------------------------|

Chorus 1

G|-----------------------------------------------------|
D|-----------------------------------------------------|
A|-----------------------------------------------------|
E|----3(x16)--1(x16)--3(x16)--1(x16)--3(x16)--1(x9)----|

Verse 2

G|--------------------------------------------------------------------------|
D|----7(x8)--3(x8)---------5(x4)----------------3(x8)---------5(x4)---------|
A|------------------3(x8)---------5(x4)--0(x8)---------3(x8)---------5(x4)--|
E|--------------------------------------------------------------------------|

G|---------------------------------|
D|----------3(x8)------------------|
A|----0(x8)--------5(x8)--1(x8)----|
E|---------------------------------|

Chorus 2

G|--------------------------------------|
D|--------------------------------------|
A|--------------------------------------|
E|----3(x16)--1(x16)--3(x16)--1(x16)----|

G|----------------------------------|
D|----------------------------------|
A|----------------------------5~----|
E|----5(x16)--3(x16)--5(x16)--------|

Bridge

G|---------------------------------------------------------|
D|----------3~----------5~----------------3~----------5----|
A|----0~----------3~----------5~----0~----------3~---------|
E|---------------------------------------------------------|

G|--------------------------------|
D|----------3(x8)--------3(x8)----|
A|----0(x8)--------5(x8)----------|
E|--------------------------------|

Verse 3

G|--------------------------------------------------------------------------|
D|----7(x8)--3(x8)---------5(x4)----------------3(x8)---------5(x4)---------|
A|------------------3(x8)---------5(x4)--0(x8)---------3(x8)---------5(x4)--|
E|--------------------------------------------------------------------------|

G|---------------------------------|
D|----------3(x8)------------------|
A|----0(x8)--------5(x8)--1(x8)----|
E|---------------------------------|

Chorus 3

G|--------------------------------------|
D|--------------------------------------|
A|--------------------------------------|
E|----3(x16)--1(x16)--3(x16)--1(x16)----|

Outro (Play until fades out)

G|----------------------|
D|----------------------|
A|----------------------|
E|----5(x16)--3(x16)----|

| /  slide up
| \  slide down
| h  hammer-on
| p  pull-off
| ~  vibrato
| +  harmonic
| x  Mute note
===============================================================================
            
Submit corrections

comments powered by Disqus
↑ Back to top | Electric Light Orchestra Bass for Here Is The News. Lyrics for acoustic guitar and electric guitar. 1 Tablatures and chords are parodies/interpretations of the original songs. You may use it for private study, scholarship, research or language learning purposes only