» » »

Electric Light Orchestra, Do Ya Bass tabs (ver.1)

Artists:  A B C D E F G H I J K L M N O P Q R S T U V W X Y Z # 

Do Ya Bass tabs (ver.1)

Electric Light Orchestra Tabs
 Rating:
4.5/5 (8 votes)
Do Ya lessons Tabs too difficult? Try these video lessons and learn fast
                come in 3rd time
G------------------------------|
D------------------------------|
A----5--------------5----------|
E-------5-5--3--------5-5--3---|

G-----------------------------------------------------------|
D-----------------------------------------------------------|
A-----------------------------------------------------------|
E---3-3-3-3-3-3-3-3-3-3-3-3-3-3-3-3-3-3-3-3-3-3-3-3-3-3-3-3-|

G---------------------------------|
D---------------------------------|
A---5--5--------------------------|x6
E---------5-5--3--3-3-3-3-3-3-3-5-|

G-----------------------------------------------------------|
D-----------------------------------------------------------|
A-----------------------------------------------------------|
E---3-3-3-3-3-3-3-3-3-3-3-3-3-3-3-3-3-3-3-3-3-3-3-3-3-3-3-3-|

G------------------|
D------------------|
A------------------|
E---3-----3------3-|

G---------------------------------|
D---------------------------------|
A---5--5--------------------------|x9
E---------5-5--3--3-3-3-3-3-3-3-5-|

G-----------------------------------------------------------|
D-----------------------------------------------------------|
A-----------------------------------------------------------|
E---3-3-3-3-3-3-3-3-3-3-3-3-3-3-3-3-3-3-3-3-3-3-3-3-3-3-3-3-|

G------------------|
D------------------|
A------------------|
E---3-----3------3-|

G-------------------------------------------------|
D-------------------------------------------------|
A---5--5------------------------------------------|
E---------5-5--3--3-3-3-3-3-3-3-3-3-3-3-3-3-3-3-3-|

G--------------------------------------|
D--------------------------------------|
A--5-5-5-5-5-5-5-5-5-5-5-5-5-5-5-5-5-5-|x2
E--------------------------------------|

G---------------------------------------------------|
D---------------------------------------------------|
A---------------------------------------------------|
E---5-5-5-5-5-5-5-5-3-3-3-3-3-3-3-3-3-3-3-3-3-3-3-3-|

G--------------------------------------|
D--------------------------------------|
A--5-5-5-5-5-5-5-5-5-5-5-5-5-5-5-5-5-5-|x2
E--------------------------------------|

G---------------------------------------------------|
D---------------------------------------------------|
A---------------------------------------------------|
E---5-5-5-5-5-5-5-5-3-3-3-3-3-3-3-3-3-3-3-3-3-3-3-3-|

G--------------------------------------|
D--------------------------------------|
A--5-5-5-5-5-5-5-5-5-5-5-5-5-5-5-5-5-5-|x2
E--------------------------------------|

come in 2nd time
G------------------------------|
D------------------------------|
A----5--------------5----------|x2
E-------5-5--3--------5-5--3---|

G-----------------------------------------------------------|
D-----------------------------------------------------------|
A-----------------------------------------------------------|
E---3-3-3-3-3-3-3-3-3-3-3-3-3-3-3-3-3-3-3-3-3-3-3-3-3-3-3-3-|

G------------------|
D------------------|
A------------------|
E---3-----3------3-|

G---------------------------------|
D---------------------------------|
A---5--5--------------------------|x3
E---------5-5--3--3-3-3-3-3-3-3-5-|

G---------------|
D---------------|
A---5--5--------|
E---------5-5-3-|

G---------------------------------|
D---------------------------------|
A---5--5--------------------------|x8
E---------5-5--3--3-3-3-3-3-3-3-5-|

G-----------------------------------------------------------|
D-----------------------------------------------------------|
A-----------------------------------------------------------|
E---3-3-3-3-3-3-3-3-3-3-3-3-3-3-3-3-3-3-3-3-3-3-3-3-3-3-3-3-|

G----------------------------------------------------|
D----------------------------------------------------|
A---3-----2-----1------------------5-----------------|
E--------------------4-3-------------------1-------3-|
            
Submit corrections

comments powered by Disqus
↑ Back to top | Electric Light Orchestra Bass for Do Ya. Lyrics for acoustic guitar and electric guitar. Tablatures and chords are parodies/interpretations of the original songs. You may use it for private study, scholarship, research or language learning purposes only