» » »

En Morkrets Man Tabs (ver.1)

Artists:  A B C D E F G H I J K L M N O P Q R S T U V W X Y Z # 

En Morkrets Man Tabs (ver.1)

Eldkvarn
Rating:
0/5 (0 votes)

Hard to play? Try these video lessons and learn fast.
                
En mörkrets man
Eldkvarn

Riff 1                                  Riff 2
                                      

e|---------------|
B|-7-8---—7-8----|
G|---------------|
D|---------------|
A|---------------|
E|---------------|




e|------10-------|             
B|----8----7-8---|
G|--9---------9--|
D|---------------|
A|---------------|
E|---------------|

 


Piano intro: Em D C x 4

Vers | Em G D C | x 12

När arbetsdan är sl*t faller ett regn 
Stan ligger i dimma på min väg hem 
Ibland känns det som jag aldrig skulle komma fram 
Och att världen har gjort mig till en mörkrets man 

Den är tre på morgon och jag ligger i sängen 
Snart går solen upp men jag orkar inte längre 
Jag har jobbat hård sett dagar bli nätter 
Jag kommer ingenstans och ingenting blir bättre 

Nu rullar vagnar genom stadens port 
världen väntar och pengar görs fort 
Innan världens ände får syn på vårt hus 
älskling, släck alla ljus

Ref. | Em G D C | Riff 1 | Em D C | Riff 2 | x 2

Regn, regn slår emot fönstret 
jag är i skydd av mörkret 
Regn, regn slår emot fönstret 
jag är i skydd av mörkret

Solo1:

| Em G C D | x 4

e|-------5-----------|    e|-7-5-3-----|      
B|-5-8-7--5—5-8--78--|    B|-----------|
G|-------------------| X 3   G|-----------|
D|-------------------|       D|-----------|
A|-------------------|       A|-----------|
E|-------------------|    E|-----------|

Vers | Em G D C | x 4

Jag har stått i mörkret där stan tar sl*t 
Ibland lastbilar och all längtan ut 
Jag har levt i ljuset tills mitt hjärta brann 
över hela vårt land


Ref. | Em G D C | Riff 1 | Em D C | Riff 2 | x 2

Regn, regn slår emot fönstret 
jag är i skydd av mörkret 
Regn, regn slår emot fönstret 
jag är i skydd av mörkret

Stick. | Em D | Em G  D | C      |

Lägg din arm omkring mig älskling, håll mig hårt 
när den sista dansen går, är bara mörkret vårt


Solo 2
Vb = Vibrate

e|------------10--------------------------7-----------|
B|--12-10--12-----------------8vb-8vb--10---7-10-8----|
G|---------------9-9--7-99vb--------------------------|
D|----------------------------------------------------|
A|----------------------------------------------------|
E|----------------------------------------------------|



Ref. | Em G D C | Riff 1 | Em D C | Riff 2 | x 5

Regn, regn slår emot fönstret 
jag är i skydd av mörkret 
Regn, regn slår emot fönstret 
jag är i skydd av mörkret
Regn, regn slår emot fönstret 
jag är i skydd av mörkret
Regn, regn slår emot fönstret 
jag är i skydd av mörkret


Outro. | Em G D C | x 4

Vi har dansat tätt genom gryningstimman 
nu faller löven, nu lättar dimman 
Jag tar min jacka, mina skor, jag går gatan fram 
en arbetsdag börjar för en mörkrets man
            
Hard to play? Try these video lessons and learn fast. | Correct




comments powered by Disqus
↑ Back to top | Tablatures and chords are parodies/interpretations of the original songs. You may use it for private study, scholarship, research or language learning purposes only