» » »

Yendo A La Casa De Damian Bass tabs (ver.1)

Artists:  A B C D E F G H I J K L M N O P Q R S T U V W X Y Z # 

Yendo A La Casa De Damian Bass tabs (ver.1)

El Cuarteto De Nos
Rating:
0/5 (0 votes)

Hard to play? Try these video lessons and learn fast.
                Hola esta es la primer vez q subo una cancion y espero q les agrade

Intro:

G----------------------------------|
D----------------------------------|
A---------8----8----7----7----7----|
E----5-----------------------------|

Y en mi casa del barrio marconi...

G----------------------------------------------------------------------|
D---------------------------------------------------------5------------|
A-7-7-7-7------5/7------6-7-8----8/12-8----10-8-7-----57---87---57-----|
E---------5--------5---------------------------------7---------7----87-|  x2 desde el 
5 los 7s no se repiten


Coro:

G-------------------------------------|
D-------------669--------------669----|
A-----88887777---------88887777-------|
E-5555-------------5555------------5--|x2

Por que me cuesta tantoo llegar:

G---------------------------------------------------------------|
D--------------------------------------------------5------------|
A-------5/7------6-7-8----8/12-8----10-8-7-----57---87---57-----|
E--5--------5---------------------------------7---------7----87-|x3

Coro:

G-------------------------------------|
D-------------669--------------669----|
A-----88887777---------88887777-------|
E-5555-------------5555------------5--|x2

Era happy hour en el cavarete

G-------------------------------------|
D-------------------------------------|
A----8--------8--------7----7----7----|
E-------------------------------------|

De un Master que tocaba jazz...

G----------------------------------------------------------------------|
D---------------------------------------------------------5------------|
A-7-7-7-7------5/7------6-7-8----8/12-8----10-8-7-----57---87---57-----|
E---------5--------5---------------------------------7---------7----87-|  x2 desde el 
5 los 7s no se repiten

Coro:

G----------------------------------- -|
D-------------669--------------669-- -|
A-----88887777---------88887777----- -|
E-5555-------------5555-------------5-|x4

en todos los coros el ultimo 5 se usa para terminar siempre terminan en 5 de E asi y 
van despues de los 9 van otra vez los 5s seguidos y en ultimo pedazo de coro va el 5 final 
es largon asi  q ojo y cualqier duda o aclaracion aqi dejo mi msn:

espero q sea de su agrado esta cncion es facilisima pero esta algo enredada como para 
por tablaturas me despido
            
Hard to play? Try these video lessons and learn fast. | Correct




comments powered by Disqus
↑ Back to top | Tablatures and chords are parodies/interpretations of the original songs. You may use it for private study, scholarship, research or language learning purposes only