» » »

Pueblo Podrido Bass tabs (ver.1)

Artists:  A B C D E F G H I J K L M N O P Q R S T U V W X Y Z # 

Pueblo Podrido Bass tabs (ver.1)

El Cuarteto De Nos
Rating:
0/5 (0 votes)

Hard to play? Try these video lessons and learn fast.
                
|-------------------|
|-------------------|
|--------2--------2-| X 2
|-0~-0-3---0~-0-3---|

|----------------------------------|
|----------------------------------|
|--------2-------23-3-2-0-2~-3-2---|
|-0~-0-3---0~-0-3----------------3-|
                                      X2
|----------------------------------|
|----------------------------------|
|--------2-------23-3-2-0-2~-3-2-0-|
|-0~-0-3---0~-0-3------------------|

|------------------------------------|
|------------------------------------|
|---------33333333-00000000-22222222-|
|00000000----------------------------|


|----------------------------------|
|----------------------------------|
|--------2-------23-3-2-0-2~-3-2---|
|-0~-0-3---0~-0-3----------------3-|

|----------------------------------|
|----------------------------------|
|--------2-------23-3-2-0-2~-3-2-0-|
|-0~-0-3---0~-0-3------------------|


|------------------------------------|
|------------------------------------|
|---------33333333-00000000-22222222-|
|00000000----------------------------|

|----------------------------------|
|----------------------------------|
|--------2-------23-3-2-0-2~-3-2---|
|-0~-0-3---0~-0-3----------------3-|

|----------------------------------|
|----------------------------------|
|--------2-------23-3-2-0-2~-3-2-0-|
|-0~-0-3---0~-0-3------------------|


|---------------------------------|
|---------------------------------|
|----------------3-33-3-3-2-22-2--|
|-0-00-0-0~-00-0------------------|

|----------------------------------|
|----------------------------------|
|--------2-------23-3-2-0-2~-3-2---|
|-0~-0-3---0~-0-3----------------3-|

|----------------------------------|
|----------------------------------|
|--------2-------23-3-2-0-2~-3-2-0-|
|-0~-0-3---0~-0-3------------------|

|--------------------------------------|
|--------------------------------------|
|---------33333333-00000000-22222222---|  X2
|00000000------------------------------|


|----|
|----|
|----|
|-0~-|
            
Hard to play? Try these video lessons and learn fast. | Correct




comments powered by Disqus
↑ Back to top | Tablatures and chords are parodies/interpretations of the original songs. You may use it for private study, scholarship, research or language learning purposes only