» » »

El Cuarteto De Nos, Me Amo Tabs (ver.1)

Artists:  A B C D E F G H I J K L M N O P Q R S T U V W X Y Z # 

Me Amo Tabs (ver.1)

El Cuarteto De Nos Tabs
 Rating:
3.8/5 (5 votes)
Me Amo lessons Tabs too difficult? Try these video lessons and learn fast
                A E F#m D
A               E        F#m            D
Me encanta mi aspecto, de hombre tan perfecto,
A              E         F#m    D
yo soy lo mas grande que hay,
ni de sabios ni de viejos,acepto concejos,
mi unico rival es el espejo.


    A la luna me gustaria ir,
|----------------2-x-2-x-2-x-2---|
|-----2------2---2-x-2-x-2-x-2---|
|---2------2-----2-x-2-x-2-x-2---|
|-4----4-3----3------------------|
|--------------------------------|
|--------------------------------|

    para ver como es el mundo sin mi.
|----------------2-x-2-x-2-x-2---2-----|
|-----2------2---2-x-2-x-2-x-2---1-----|
|---2------2-----2-x-2-x-2-x-2---2-----|
|-4----4-3----3------------------------|
|--------------------------------------|
|--------------------------------------|

C#m x3  B

   A  E         F#m       C#m     A  E        F#m   C#m
Me amo, como la tierra al sol, me amo, como Naciso soy,
   A  E           F#m  C#m          D     C#m     A  E7
me amo, dibuje un corazon, que dice yo y yo, me amo.

A            E      F#m       D
Tengo tantas chicas hermosas y ricas,
   A             E        F#m  D
pero ninguna es digna de mi,
por eso no ando dejando corazones rotos,
me masturbo mirando mi fotos.

    Y aunque yo no creo en ningun Dios,
|----------------2-x-2-x-2-x-2---|
|-----2------2---2-x-2-x-2-x-2---|
|---2------2-----2-x-2-x-2-x-2---|
|-4----4-3----3------------------|
|--------------------------------|
|--------------------------------|

rezo para que no haya reencarnacion.
|----------------2-x-2-x-2-x-2---2-----|
|-----2------2---2-x-2-x-2-x-2---1-----|
|---2------2-----2-x-2-x-2-x-2---2-----|
|-4----4-3----3------------------------|
|--------------------------------------|
|--------------------------------------|


C#m x3  B
   A  E         F#m       C#m     A  E        F#m   C#m
Me amo, como la tierra al sol, me amo, como Narciso soy,
   A  E           F#m C#m           D    C#m    A  E7
me amo, dibuje un corazon, que dice yo y yo, me amo.


A              E               F#m           D
Yo me llevo solo bien conmigo, yo del mundo soy el hombligo,
de mi vida yo hablo mucho, cuando me hablan yo nunca escucho,
y soy de mi propia secta, soy mi paraja perfecta,
si yo soy asi, propongo un brindis por mi.

Me amo, como la tierra al sol, me amo, como Naciso soy,
me amo, dibuje un corazon, me amo, me amo, me amo, me amo.
            
Submit corrections

comments powered by Disqus
↑ Back to top | El Cuarteto De Nos Tabs for Me Amo. Lyrics for acoustic guitar and electric guitar. Tablatures and chords are parodies/interpretations of the original songs. You may use it for private study, scholarship, research or language learning purposes only