» » »

Witch Hunt Tabs (ver.1)

Artists:  A B C D E F G H I J K L M N O P Q R S T U V W X Y Z # 

Witch Hunt Tabs (ver.1)

El-creepo
Rating:
5/5 (1 vote)

Hard to play? Try these video lessons and learn fast.
                -------------------------------------------------------------------------------
                             Witch Hunt - El Creepo
-------------------------------------------------------------------------------

Tuning: Standard

There are a lot of parts to this song. If you're doing it solo, I would just stick to the chords.

Verse: Play three times.

e|----------------------------2---2------0---0-------------------------------|
B|-----2---2-------3---3-------3---3------2---2------------------------------|
G|------2---2-------4---4-------2----------2---------------------------------|
D|-------4-----------4-------------------------------------------------------|
A|---------------------------------------------------------------------------|
E|---------------------------------------------------------------------------|

Pre-Chorus: Play twice using these chords.

e|------0--------------0-------------------------------------------------------|
B|------0--------------2-------------------------------------------------------|
G|------0--------------2-------------------------------------------------------|
D|------2--------------2-------------------------------------------------------|
A|------2--------------0-------------------------------------------------------|
E|------0----------------------------------------------------------------------|

Chorus: Play four times using these chords.

Note* I usually hit the lower notes first with my thumb on downstrokes, 
and then the higher notes with my first finger as upstrokes; 
I think it sounds closest to what he does. This song is a lot better without a pick, 
as is a lot of his other acoustic work. 
If you aren't good with fingerpicking, his stuff is great for practicing with.

e|---------------------------------------------------------------------------------|
B|-------2--------3---------7---------5--------------------------------------------|
G|-------2--------4---------7---------6--------------------------------------------|
D|-------4--------4---------7---------7--------------------------------------------|
A|-------4--------2---------5---------7--------------------------------------------|
E|-------2----------------------------5--------------------------------------------|

During the second pre-chorus, this is also played.

e|-----------------2-----------------------5-2-------------------------------|
B|-------2-3--5-5----0-3------------2-3--5-----------------------------------|
G|---------------------------------------------------------------------------|
D|---------------------------------------------------------------------------|
A|---------------------------------------------------------------------------|
E|---------------------------------------------------------------------------|

Bridge: Play this progression three times,

e|---------7--------5--------2--------3------------------------------------------|
B|---------8--------7--------3--------5------------------------------------------|
G|---------9--------7--------4--------5------------------------------------------|
D|---------9--------7--------4--------5------------------------------------------|
A|---------7--------5--------2--------3------------------------------------------|
E|-------------------------------------------------------------------------------|

and then the fourth time:

e|---------7--------5-------2---------5------------------------------------------|
B|---------8--------7-------3---------5------------------------------------------|
G|---------9--------7-------4---------6------------------------------------------|
D|---------9--------7-------4---------7------------------------------------------|
A|---------7--------5-------2---------7------------------------------------------|
E|------------------------------------5------------------------------------------|
"But it's too late to save you now, 'cause I'm..." (Keep strumming last chord for "'cause I'm...")

This is also heard simultaneously, with effects:

e|----------3--2--5--7-------------------------------------------------------|
B|---------------------------------------------------------------------------|
G|---------------------------------------------------------------------------|
D|---------------------------------------------------------------------------|
A|---------------------------------------------------------------------------|
E|---------------------------------------------------------------------------|


e|--------5--------3--------2-------3-------5-------3-------3--------2----------------|
B|--------5--------3--------3-------5-------5-------3-------5--------4----------------|
G|--------5--------4--------4-------5-------5-------4-------5--------4----------------|
D|--------7--------5--------4-------5-------7-------5-------5--------4----------------|
A|--------7--------5--------2-------3-------7-------5-------3--------2----------------|
E|--------5--------3------------------------5-------3---------------------------------|
"...floating downstream on those haunted rivers..." "...falling asleep among the charred remains."


I'm not entirely sure though about this part being played in the background during the bridge. 
It begins with "haunted rivers"

e|---------------------------------------------------------------------------|
B|----------------------1-1------------0-----0----0---4----------------------|
G|-----------44--5---------2h---------2-2---2-2--2----2----------------------|
D|-----------44--5------------0-2h-4h------3----2----------------------------|
A|-----------22--3-----------------------------------------------------------|
E|---------------------------------------------------------------------------|

During the final pre-chorus and chorus, guitar 2 can play:

e|-------7--2--5--------7--2--5--9--14--19--17--14--9---7--4--2---7-9-7-4-2--7-9---|
B|---------------(2)----------------------------------------------(and so on till--|
G|--------------------------------------------------------------------the end)-----|
D|---------------------------------------------------------------------------------|
A|---------------------------------------------------------------------------------|
E|---------------------------------------------------------------------------------|

Ending Chord:

e|-------2--------------------------------------------------------------------|
B|-------2--------------------------------------------------------------------|
G|-------2--------------------------------------------------------------------|
D|-------4--------------------------------------------------------------------|
A|-------4--------------------------------------------------------------------|
E|-------2--------------------------------------------------------------------|


************************************

| /   slide up
| \   slide down
| h   hammer-on
| p   pull-off
| ~   vibrato
| +   harmonic
| x   Mute note
| b   Bend
| pb  Pre-bend
| br  Bend release
| pbr Pre-bend release
| brb Bend release bend

************************************
            
Hard to play? Try these video lessons and learn fast. | Correct




comments powered by Disqus
↑ Back to top | Tablatures and chords are parodies/interpretations of the original songs. You may use it for private study, scholarship, research or language learning purposes only