>
 >
Space Needle

Space Needle Guitar Tabs

El-creepo - Space Needle chords, tabs, tablatures, lyrics

Guitar lessons | Add/correct | Request | Top 50 tabs Artists:  A B C D E F G H I J K L M N O P Q R S T U V W X Y Z 0-9

Space Needle Guitar Tabs – El-creepo

CD, Sheet music, Poster

Do you like Space Needle? Share with your friends now
Tabs
-------------------------------------------------------------------------------
                             Space Needle - El Creepo
-------------------------------------------------------------------------------

Tuning: Standard

First half:

e|---------------------------------------------------------------------------|
B|---------------------------------------------------------------------------|
G|----2--2--2--2--2--2--2--2--2--2--2--2--2--2--2--2------(Play twice)-------|
D|----4--4--4--4--3--3--3--3--4--4--4--4--3--3--3--3-------------------------|
A|---------------------------------------------------------------------------|
E|------0--0--0--0--0--0--0--0--0--0--0--0--0--0--0--0-----------------------|

e|---------------------------------------------------------------------------|
B|---------------------------------------------------------------------------|
G|----2--2--2--2--4--4--4--4--7--7--7--7--4--4--4--4--2--2--2--2-------------|
D|----4--4--4--4--6--6--6--6--9--9--9--9--6--6--6--6--4--4--4--4-------------|
A|---------------------------------------------------------------------------|
E|------0--0--0--0--0--0--0--0--0--0--0--0--0--0--0--0--0--0--0--0-----------|

e|---------------------------------------------------------------------------|
B|---------------------------------------------------------------------------|
G|----2--2--2--2--6--6--8--9--8--5----5--5--5--6--6--8--9--8--5----5--5--5---|
D|----3--3--3--3--7--7--7--7--7--7----7--7--7--7--7--7--7--7--7----7--7--7---|
A|---------------------------------------------------------------------------|
E|------0--0--0--0--0--0-----------0-0--0--0--0--0--0-----------0-0--0--0--0-|


Second half: 


e|----2------------5-----------2------------5---------4----------------------|
B|----2------------5-----------2------------5---------5----------------------|
G|----2------------6-----------2------------6---------6----------------------|
D|----4------------7-----------4------------7---------6----------------------|
A|----4------------7-----------4------------7---------4----------------------|
E|----2------------5-----------2------------5--------------------------------|
   (8 beats)   (8 beats)   (8 beats)    (6 beats)   (2 beats)

e|----0------------2-----------0------------2---------4---------------------------|
B|----0------------2-----------0------------2---------6---------------------------|
G|----1------------2-----------1------------2---------6---------------------------|
D|----2------------4-----------2------------4---------6---------------------------|
A|----2------------4-----------2------------4---------4---------------------------|
E|----0------------2-----------0------------2-------------------------------------|
   (8 beats)   (4 beats)   (8 beats)    (4 beats)   (4 beats/hold)


Little thing in between: "Sleep now, forget the day..."

e|---------------------------------------------------------------------------|
B|-------5---5--6---6--7---7--6---6--5---5--6---6--7---7--6------------------|
G|--------6------6------6------6------6------6------6------------------------|
D|---------7------7------7------7------7------7------7-----------------------|
A|---------------------------------------------------------------------------|
E|---------------------------------------------------------------------------|

Also during the second part (with effect, if you want):

e|---9--9--9--9--9--9--9--9--7--7--7--7--7--7--7--7--9--9--9--9--9--9--9--9--|
B|-12-12-12-12-12-12-12-12-10-10-10-10-10-10-10-10-12-12-12-12-12-12-12-12---|
G|---------------------------------------------------------------------------|
D|---------------------------------------------------------------------------|
A|---------------------------------------------------------------------------|
E|---------------------------------------------------------------------------|

e|---7--7--7--7--7--7-7-7----------------------------------------------------|
B|-10-10-10-10-10-10-9-9----10-10-10-10-10-10-10-10--9--9--9--9--------------|
G|------------------------13-13-13-13-13-13-13-13--11-11-11-11---------------|
D|---------------------------------------------------------------------------|
A|---------------------------------------------------------------------------|
E|---------------------------------------------------------------------------|

e|---------------------------------------------------------------------------|
B|---10-10-10-10-10-10-10-10--9--9--9--9-------------------------------------|
G|-13-13-13-13-13-13-13-13--11-11-11-11---10---------------------------------|
D|---------------------------------------------------------------------------|
A|---------------------------------------------------------------------------|
E|---------------------------------------------------------------------------|





Comments


Popular El-creepo tabs & chords
Bloody Mary Tabs
Hitman Tabs
The Art Of Bullfighting Tabs
Witch Hunt Tabs


Song lyrics



↑ Back to top | Tablatures and chords are parodies/interpretations of the original songs. You may use it for private study, scholarship, research or language learning purposes only
© 2014 AZChords.com Contact us | Privacy policy | DMCA | Add/correct tabs | Request tabs | Top 50 tabs