>
 >
Hitman

Hitman Guitar Tabs

El-creepo - Hitman chords, tabs, tablatures, lyrics

Guitar lessons | Add/correct | Request | Top 50 tabs Artists:  A B C D E F G H I J K L M N O P Q R S T U V W X Y Z 0-9

Hitman Guitar Tabs – El-creepo

CD, Sheet music, Poster

Do you like Hitman? Share with your friends now
Tabs
-------------------------------------------------------------------------------
                             Hitman - El Creepo
-------------------------------------------------------------------------------


Tuning: Standard

Main riff:

e|--------------------------|
B|--------------------------|
G|--------------------------|
D|---5-6-9-2--5-6-9-222-----|
A|---5-6-9-2--5-6-9-222-----|
E|---3-4-7-0--3-4-7-000-----|

Verse: Would need a bass.

Riff 2: This is the "Cross-eyed and bleeding on a crucifix" part.

e|--------------------------------------------------|
B|--------------------------------------------------|
G|--------------------------------------------------|
D|---6-666666666666--3-333333333333-----x2----------|
A|---6-666666666666--3-333333333333-----------------|
E|---4-444444444444--1-111111111111-----------------|

e|-----------------------------------------|
B|-----------------------------------------|
G|-----------------------------------------|
D|---6-66666666666-9--3-333333333333-------|
A|---6-66666666666-9--3-333333333333-------|
E|---4-44444444444-7--1-111111111111-------|

Bridge: "Trust me..."

e|-------------------------------------------------------------------|
B|-------------------------------------------------------------------|
G|--------6-8-9--12121212121212--------6-8-9--12121212121211---------|
D|---6-6--6-8-9--12121212121212---6-6--6-8-9--12121212121211---------|
A|---6-6--4-6-7--10101010101010---6-6--4-6-7--1010101010109----------|
E|---4-4--------------------------4-4--------------------------------|

e|---------------------------------|
B|---------------------------------|
G|--------6-8-9--12121212121212----|
D|---6-6--6-8-9--12121212121212----|
A|---6-6--4-6-7--10101010101010----|
E|---4-4---------------------------|

e|-------------------------------------------------------------------|
B|-------------------------------------------------------------------|
G|-------------------------------------------------------------------|
D|---11111111111111-1010101010101010-9999999-88888888----------------|
A|---11111111111111-1010101010101010-9999999-88888888----------------|
E|---9-9-9-9-9-9-9--8-8-8-8-8-8-8-8--7777777-66666666----------------|





Comments


Popular El-creepo tabs & chords
Bloody Mary Tabs
Space Needle Tabs
The Art Of Bullfighting Tabs
Witch Hunt Tabs


Song lyrics



↑ Back to top | Tablatures and chords are parodies/interpretations of the original songs. You may use it for private study, scholarship, research or language learning purposes only
© 2014 AZChords.com Contact us | Privacy policy | DMCA | Add/correct tabs | Request tabs | Top 50 tabs