» » »

Bloody Mary Tabs (ver.1)

Artists:  A B C D E F G H I J K L M N O P Q R S T U V W X Y Z # 

Bloody Mary Tabs (ver.1)

El-creepo
Rating:
5/5 (1 vote)

Hard to play? Try these video lessons and learn fast.
                -------------------------------------------------------------------------------
                             Bloody Mary - El Creepo
-------------------------------------------------------------------------------

Tuning: Standard

e|-----------|------------|
B|-----------|------------|
G|-----1-----|-----2------|
D|-----2-----|-----2------|
A|-----2-----|-----3------|
E|-----0-----|-----3------|

The entire song is these two chords. You just have to get the rhythm right.
            
Hard to play? Try these video lessons and learn fast. | Correct




comments powered by Disqus
↑ Back to top | Tablatures and chords are parodies/interpretations of the original songs. You may use it for private study, scholarship, research or language learning purposes only