>
 >
Volver A Disfrutar

Volver A Disfrutar Guitar Tabs

El Canto Del Loco - Volver A Disfrutar chords, tabs, tablatures, lyrics

Guitar lessons | Add/correct | Request | Top 50 tabs Artists:  A B C D E F G H I J K L M N O P Q R S T U V W X Y Z 0-9

Volver A Disfrutar Guitar Tabs – El Canto Del Loco

CD, Sheet music, Poster

Do you like Volver A Disfrutar? Share with your friends now
ChordsTabsUkulele
Tema: Volver a disfrutar
Grupo: El Canto Del Loco
Escrito por: El Canto Del Loco

Notación:

^ púa hacia arriba y abajo
/ lisado desde grave
\ lisado desde agudo
X Arrastre de púa




Intro

e--------------------------->
B--------------------------->
G--------------------------->
D--------------------------->   x 4
A---------------3-6-6-3----->
E--4-4-4-4-4-/6---------6--->
       ^ ^




Dé...janos en paz

e-------------------------------------------------->
B-------------------------------------------------->
G-------------------------------------------------->
D--------------------------------------5-8-8-5----->
A----------------3-6-6-3---6-6-6-6-6-8---------8--->
E--4-4-4-4-4-/6----------6------------------------->
       ^ ^                     ^ ^




no nos cuentes otro cuento que no va !!

e----------------------8-9-8-9-8-X-9-9-8-9-8-9-8------->
B----------------------9-9-9-9-9-X-9-9-9-9-9-9-9------->
G--66-X-6--8-8-X-88------------------------------------>
D--66-X-6--8-8-X-88------------------------------------>
A--44-X-4--6-6-X-66------------------------------------>
E------------------------------------------------------>




Ese es tu plan,                            tal vez no 

e-------------------------------------------------->
B-------------------------------------------------->
G-------------------------------------------------->
D--------------------------------------5-8-8-5----->
A----------------3-6-6-3---6-6-6-6-6-8---------8--->
E--4-4-4-4-4-/6----------6------------------------->
       ^ ^                     ^ ^




has contado con nosotros y ahora vais a marearnos más

e--------------------------------------->
B--------------------------------------->
G--66-X-6--8-8-X-88--------------------->
D--66-X-6--8-8-X-88--66-X-6--6-66-X-66-->
A--44-X-4--6-6-X-66--66-X-6--6-66-X-66-->
E--------------------44-X-4--3-33-X-33-->




No veo la necesidad de discutir,          sólo hay que dejarlo claro todo...

e--------------------------------------------------------------------------------------->
B--------------------------------------------------------------------------------------->
G----------8-8-X-88--66-X-6---------------8-8-X-88--66-X-6-X-6-66-X-66--88-X-8-X-8-88--->
D--33-X-3--8-8-X-88--66-X-6--6-5--33-X-3--8-8-X-88--66-X-6-X-6-66-X-66--88-X-8-X-8-88--->
A--33-X-3--6-6-X-66--44-X-4--6-5--33-X-3--6-6-X-66--44-X-4-X-4-44-X-44--66-X-6-X-6-66--->
E--11-X-1--------------------4-3--11-X-1------------------------------------------------>




Por volver a disfrutar
con algo que decir
con algo que pensar
tener las cosas claras 
para no volver atrás

e------------------------------------------->
B------------------------------------------->
G------------88888888--66666666--66666666--->
D--66666666--88888888--66666666--66666666--->
A--66666666--66666666--44444444--44444444--->
E--44444444--------------------------------->
   ^^^^^^^^  ^^^^^^^^  ^^^^^^^^  ^^^^^^^^




cambiar la dirección
con un solo motor
dejar las cosas claras
para no acabar tan mal

e------------------------------------------->
B------------------------------------------->
G------------88888888--66666666--66666666--->
D--66666666--88888888--66666666--66666666--->
A--66666666--66666666--44444444--44444444--->
E--44444444--------------------------------->
   ^^^^^^^^  ^^^^^^^^  ^^^^^^^^  ^^^^^^^^




Puente

e-------------------------------------->
B-------------------------------------->
G-------------------/666666--/888888--->
D--/66666-6--66666--/666666--/888888--->
A--/66666-6--66666--/444444--/666666--->
E--/44444-4--33333--------------------->




No quiero más, 

e-------------------------------------------------->
B-------------------------------------------------->
G-------------------------------------------------->
D--------------------------------------5-8-8-5----->
A----------------3-6-6-3---6-6-6-6-6-8---------8--->
E--4-4-4-4-4-/6----------6------------------------->
       ^ ^                     ^ ^




que me enseñes tu careto de anormal

e----------------------8-9-8-9-8-X-9-9-8-9-8-9-8------->
B----------------------9-9-9-9-9-X-9-9-9-9-9-9-9------->
G--66-X-6--8-8-X-88------------------------------------>
D--66-X-6--8-8-X-88------------------------------------>
A--44-X-4--6-6-X-66------------------------------------>
E------------------------------------------------------>




Déjalo estar,                                formas  

e-------------------------------------------------->
B-------------------------------------------------->
G-------------------------------------------------->
D--------------------------------------5-8-8-5----->
A----------------3-6-6-3---6-6-6-6-6-8---------8--->
E--4-4-4-4-4-/6----------6------------------------->
       ^ ^                     ^ ^




parte de ese género que huele a mentira y falsedad

e--------------------------------------->
B--------------------------------------->
G--66-X-6--8-8-X-88--------------------->
D--66-X-6--8-8-X-88--66-X-6--6-66-X-66-->
A--44-X-4--6-6-X-66--66-X-6--6-66-X-66-->
E--------------------44-X-4--3-33-X-33-->




No veo la necesidad de discutir,          sólo hay que dejarlo claro todo...

e--------------------------------------------------------------------------------------->
B--------------------------------------------------------------------------------------->
G----------8-8-X-88--66-X-6---------------8-8-X-88--66-X-6-X-6-66-X-66--88-X-8-X-8-88--->
D--33-X-3--8-8-X-88--66-X-6--6-5--33-X-3--8-8-X-88--66-X-6-X-6-66-X-66--88-X-8-X-8-88--->
A--33-X-3--6-6-X-66--44-X-4--6-5--33-X-3--6-6-X-66--44-X-4-X-4-44-X-44--66-X-6-X-6-66--->
E--11-X-1--------------------4-3--11-X-1------------------------------------------------>




Por volver a disfrutar
con algo que decir
con algo que pensar
tener las cosas claras 
para no volver atrás

e------------------------------------------->
B------------------------------------------->
G------------88888888--66666666--66666666--->
D--66666666--88888888--66666666--66666666--->
A--66666666--66666666--44444444--44444444--->
E--44444444--------------------------------->
   ^^^^^^^^  ^^^^^^^^  ^^^^^^^^  ^^^^^^^^




cambiar la dirección
con un solo motor
dejar las cosas claras
para no acabar tan mal

e------------------------------------------->
B------------------------------------------->
G------------88888888--66666666--66666666--->
D--66666666--88888888--66666666--66666666--->
A--66666666--66666666--44444444--44444444--->
E--44444444--------------------------------->
   ^^^^^^^^  ^^^^^^^^  ^^^^^^^^  ^^^^^^^^




Solo

e-------------------------------------------------->
B--/99999999-\88888888-/88888888-/66666666-44444--->
G-------------------------------------------------->
D-------------------------------------------------->
A-------------------------------------------------->
E-------------------------------------------------->

e------------/66666666-/66666666--------/11-11-11-11-11-11--->
B--/99999999---------------------/99999---------------------->
G------------------------------------------------------------>
D------------------------------------------------------------>
A------------------------------------------------------------>
E------------------------------------------------------------>




Por disfrutar... Por disfrutar...

e------------------------------------------------------------>
B------------------------------------------------------------>
G----------------66-6-6-66-6-6--88-8-8-88-8-8---------------->
D--3-3-3-33-3-3--66-6-6-66-6-6--88-8-8-88-8-8--66-6-6-66-6--->
A--3-3-3-33-3-3--44-4-4-44-4-4--66-6-6-66-6-6--66-6-6-66-6--->
E--1-1-1-11-1-1--------------------------------44-4-4-33-3--->




Por disfrutar... Por disfrutar...

e-------------------------------------------------->
B-------------------------------------------------->
G-------------------------------66-6-6-66-6-6--8--->
D--3-3-3-33-3-3--66-6-6-66-6-6--66-6-6-66-6-6--8--->
A--3-3-3-33-3-3--66-6-6-66-6-6--44-4-4-44-4-4--6--->
E--1-1-1-11-1-1--44-4-4-44-4-4--------------------->




Por volver a disfrutar
con algo que decir
con algo que pensar
tener las cosas claras 
para no volver atrás

e------------------------------------------->
B------------------------------------------->
G------------88888888--66666666--66666666--->
D--66666666--88888888--66666666--66666666--->
A--66666666--66666666--44444444--44444444--->
E--44444444--------------------------------->
   ^^^^^^^^  ^^^^^^^^  ^^^^^^^^  ^^^^^^^^




cambiar la dirección
con un solo motor
dejar las cosas claras
para no acabar tan mal

e------------------------------------------->
B------------------------------------------->
G------------88888888--66666666--66666666--->
D--66666666--88888888--66666666--66666666--->
A--66666666--66666666--44444444--44444444--->
E--44444444--------------------------------->
   ^^^^^^^^  ^^^^^^^^  ^^^^^^^^  ^^^^^^^^




Con algo que decir
con algo que pensar
tener las cosas claras 
para no volver atrás

e------------------------------------------->
B------------------------------------------->
G------------88888888--66666666--66666666--->
D--66666666--88888888--66666666--66666666--->
A--66666666--66666666--44444444--44444444--->
E--44444444--------------------------------->
   ^^^^^^^^  ^^^^^^^^  ^^^^^^^^  ^^^^^^^^




cambiar la dirección
con un solo motor
dejar las cosas claras
para no acabar tan mal

e------------------------------------------->
B------------------------------------------->
G------------88888888--66666666--66666666--->
D--66666666--88888888--66666666--66666666--->
A--66666666--66666666--44444444--44444444--->
E--44444444--------------------------------->
   ^^^^^^^^  ^^^^^^^^  ^^^^^^^^  ^^^^^^^^




e--------------------------->
B--------------------------->
G--------------------------->
D--------------------------->
A---------------3-6-6-3----->
E--4-4-4-4-4-/6---------6--->
       ^ ^





Comments


Popular El Canto Del Loco tabs & chords
Aunque Tu No Lo Sepas Chords
Contigo 1 Chords
Contigo 2 Chords
Desaparece Chords
La Madre De Jose Chords
Sera Chords
Ya Nada Volvera A Ser Como Antes Chords
Desaparece Ukulele
La Madre De Jose Ukulele
Vuelve Ukulele


Song lyrics



↑ Back to top | Tablatures and chords are parodies/interpretations of the original songs. You may use it for private study, scholarship, research or language learning purposes only
© 2014 AZChords.com Contact us | Privacy policy | DMCA | Add/correct tabs | Request tabs | Top 50 tabs