» » »

El Canto Del Loco, Preguntas Bass tabs (ver.1)

Artists:  A B C D E F G H I J K L M N O P Q R S T U V W X Y Z # 

Preguntas Bass tabs (ver.1)

El Canto Del Loco Tabs
Rating:
5/5 (1 vote)
Preguntas lessons Tabs too difficult? Try these video lessons and learn fast
                -------------------------------------------------------------------------------
-------------------------------------------------------------------------------


Tuning: Standard (EADG)

Aqui va la tablatura de bajo de esta cancion del canto de loco que me 
pidieron que tabbeara, cualquier duda, comentario o lo que sea ahi tienen
mi correo

Intro riff final "todo lo que digo sabes que"
G|-------|
D|-------|
A|-------|
E|-2--4--|

Verso
G|--------------------------------------------|
D|-------6-4-3-------6-4-3--1--1-1---1--------|
A|-4--4---------------------------------------|
E|--------------6--6---------------2----2--4--|

"Yo quiero la vida otra vez"
G|-------|
D|-------|
A|-------|
E|-2--4--|

Coro
G|---------------------------------------------|
D|---------------------------------------------|
A|-4-4-4-444-----------------------------------|
E|------------6-6-6-666--2-2-2-222--4-4-4-444--|

"y te vuelvo a recordar"
G|------1---1--------6---6----|
D|-3--3---3---3-4--4---4---4--|
A|----------------------------|
E|----------------------------|

"que si he llegado tarde"
G|---3---3-----3---3-----------------------------------------------------|
D|-1---1---1-1---1-------------------------------------------------------|
A|----------------------3---3-----3---3----------------------------------|
E|--------------------1---1---1-1---1----22222222222222-444444444444444--|

cambio al solo
G|--------------------|
D|-44444444-66666666--|
A|--------------------|
E|--------------------|

Solo y final de la cancion son igual que el coro


| /  slide up
| \  slide down
| h  hammer-on
| p  pull-off
| ~  vibrato
| +  harmonic
| x  Mute note
===============================================================================
            
Submit corrections

comments powered by Disqus
↑ Back to top | El Canto Del Loco Bass for Preguntas. Lyrics for acoustic guitar and electric guitar. Tablatures and chords are parodies/interpretations of the original songs. You may use it for private study, scholarship, research or language learning purposes only