» » »

Elbow, Lippy Kids Bass tabs (ver.1)

Artists:  A B C D E F G H I J K L M N O P Q R S T U V W X Y Z # 

Lippy Kids Bass tabs (ver.1)

Elbow Tabs
 Rating:
4/5 (4 votes)
Lippy Kids lessons Tabs too difficult? Try these video lessons and learn fast
                Lippy Kids Bass Tab
By Elbow


Tuning: Standard (EADG)

This is a hard song to tab considering the notes are constantly changing but
it can be easily played by improvising E|-3&5-| and A|-3&5-| at certain times.

Listen to the song for timing as it sounds a bit off-beat, and have fun!

Verse:
G|---------------------------------------------------------------------------|
D|---------------------------------------------------------------------------|
A|--5-------3-------------------------5-------3-------3-5--------------------|
E|------------------3-------------3-5---------------------3------------------|

This is repeated, sometimes adding/taking away more notes

Chorus:
G|---------------------------------------------------------------------------|
D|---------------------------------------------------------------------------|
A|--7--5--2--3--3--2-------7--5--2--3--3--2----------------------------------|
E|--------------------3----------------------3-------------------------------|

Repeated until the last time ends on A|-5-| instead of E|-3-|
Then back to the Verse.

===============================================================================
            
Submit corrections

comments powered by Disqus
↑ Back to top | Elbow Bass for Lippy Kids. Lyrics for acoustic guitar and electric guitar. Tablatures and chords are parodies/interpretations of the original songs. You may use it for private study, scholarship, research or language learning purposes only