» » »

Elbow, Leaders Of The Free World Bass tabs (ver.1)

Artists:  A B C D E F G H I J K L M N O P Q R S T U V W X Y Z # 

Leaders Of The Free World Bass tabs (ver.1)

Elbow Tabs
 Rating:
4.4/5 (7 votes)
Leaders Of The Free World lessons Tabs too difficult? Try these video lessons and learn fast
                This is all done according to ear....
I find it insane that no one has made a tab for this bassline, since it's one of 
the coolest ones i've ever come across...

This my first tab, let me know what you think!!

Song Progression:
	Verse Pt. 1 (x2)
	Verse Pt. 2
	Pre-Chorus
	Chorus (x2)
	Bridge
	Verse Pt. 1
	Verse Pt. 2
	Pre-Chorus
	Chorus (x3)
	Verse Pt. 2 (x5)

Played with thick, warm and crunchy distortion. with the balance fully on OD, but 
the gain itself not too high.

Verse Part 1

G|-----------------------------------------------------------------------|
D|-------------------------------9-----------9--9------------------------|
A|-------7--------7-----7--------------7--7------------------------------|
E|-0--0-----0--0-----0-----0--0-----0------------------------------------|

G|-----------------------------------------------------------------------|
D|-------9-----------9---------------------------------------------------|
A|-9-----------9-----------9-----------5-----5--7------------------------|
E|----7-----7-----7-----7-----7--5--7-----7------------------------------|

G|-----------------------------------------------------------------------|
D|----------------7------------------------------------------------------|
A|-------7-----7-----7-----------------------5---------------------------|
E|-5--5-----5-----------5-----5-----5-----7-----7------------------------|

G|-----------------------------------------------------------------------|
D|----------------------------------10-----------------------------------|
A|------------/10-9--8--7--------------------7---------------------------|
E|-8--8--8--8--------------8--8--8-----8--8------------------------------|

Verse Part 2/Bridge

G|-----------------------------------------------------------------------|
D|-----------------------------------------------------------------------|
A|-------7-----10-9--8--7--7-----7-----5--6--7--7------------------------|
E|-0--0-----0-----------------0-----0------------------------------------|

G|-----------------------------------------------------------------------|
D|-------9-----------9-----------------------9---------------------------|
A|-9-----------9-----------9-----9-----7---------------------------------|
E|----7-----7-----7-----7-----7-----7-----7-----7------------------------|

G|-----------------------------------------------------------------------|
D|-----------------------------------------------------------------------|
A|----------------------3-----------3------------------------------------|
E|-5--5--5--5-\3--4--5-----5--5--5-----5--3--5--3------------------------|

G|-----------------------------------------------------------------------|
D|-----------------------------------------------------------------------|
A|-------------------7---------------------------------------------------|
E|/8--8--8--8--10-8-----8--8--8--8--8-10---0--7--6-----------------------|

Pre-Chorus

G|-----------------------------------------------------------------------|
D|-----------------------------------------------------------------------|
A|-------7-----7--------7--------7-----7--------7------------------------|
E|-0--0-----0-----0--0-----0--0-----0-----0--0---------------------------|

G|-----------------------------------------------------------------------|
D|-------9-----------9-----------9-----------9---------------------------|
A|-------------9-----------------------9---------------------------------|
E|-7--7-----7-----7-----7--7--7-----7-----7-----7------------------------|

G|-----------------------------------------------------------------------|
D|-----------------------------------------------------------------------|
A|----------------------5-----------7-----7------------------------------|
E|-8--8--8--8-\5--7--8-----0--0--0-----0-----0--0------------------------|

G|-----------------------------------------------------------------------|
D|-----------------------------------------------------------------------|
A|-------------6-----------------9-----6-----9---------------------------|
E|-7--7--7--7-----7--9--7--7--7-----7-----7-----7------------------------|


Chorus

G|-----------------------------------------------------------------------|
D|-----------------------------------------------------------------------|
A|-------------5-----7-----------------5-----3---------------------------|
E|-5--5--5--5-----5-----5--3--3--3--3-----3-----3------------------------|

G|-----------------------------------------------------------------------|
D|----------------------7--------------9---------------------------------|
A|-------------6--6--9-----9-----------------9---------------------------|
E|-7--7--7--7-----------------7--7--7-----7-----7------------------------|
            
Submit corrections

comments powered by Disqus
↑ Back to top | Elbow Bass for Leaders Of The Free World. Lyrics for acoustic guitar and electric guitar. Tablatures and chords are parodies/interpretations of the original songs. You may use it for private study, scholarship, research or language learning purposes only