» » »

Grounds For Divorce Tabs (ver.3)

Artists:  A B C D E F G H I J K L M N O P Q R S T U V W X Y Z # 

Grounds For Divorce Tabs (ver.3)

Elbow
Rating:
2/5 (1 vote)

Hard to play? Try these video lessons and learn fast.
                Hi first tab this isnt the full song but only the riff. there are two ways to play it this way.
                          *2                                     *2 
E------------------------------------------------------------------|
B-----------3-------------3------------------3-6-3-----------3-----|
G---------------------------5----------------------------------5---|
D--5^-5-3--------5^-5-3------------5^-5-3----------5^-5-3----------|
A---------5-------------5------------------5---------------5-------|
E------------------------------------------------------------------|

And then this way. ( which i think is easier with the bends).
                                 *2                                     
E--------------------------------------|
B--------------------------------------|
G------------7-------------7-----------|
D-----------------------------10~------|
A--10^~----------10^~------------------|
E-------10------------10---------------|

then

E----------------------------------------|
B----------------------------------------|
G------------7----10---7--------------7--|
D----------------------------------------|
A--10^~----------------------10^~--------|
E-------10------------------------10-----|

then

E----------------------------------------|
B----------------------------------------|
G------------7----10---7-----------------|
D----------------------------------------|
A--10^~----------------------10^~--------|
E-------10------------------------10-----|


continue onto verse which i havent tabbed

hope you like it,
            
Hard to play? Try these video lessons and learn fast. | Correct




comments powered by Disqus
↑ Back to top | Tablatures and chords are parodies/interpretations of the original songs. You may use it for private study, scholarship, research or language learning purposes only