» » »

Elbow, Grounds For Divorce Bass tabs (ver.3)

Artists:  A B C D E F G H I J K L M N O P Q R S T U V W X Y Z # 

Grounds For Divorce Bass tabs (ver.3)

Elbow Tabs
 Rating:
3.6/5 (5 votes)
Grounds For Divorce lessons Tabs too difficult? Try these video lessons and learn fast
                
Tuning: Standard
Many thanks for R2Ben2 -  simplified version for newbies

Pre verse:
G|-10-7-5-7-10-7-5-7-10-7-5-7-10-7-5-7|
D|------------------------------------|
A|------------------------------------|
E|------------------------------------| X2

Mondays are for drinking to the seldom seen kid


Verse:
G|-10-7-5-7--7--7-|
D|----------------|
A|----------------|
E|----------------| X16

I've been...

Pre Chorus:
G|--------------------------------7-7-7-7-7-7-7-7----------------|
D|-8-8-8-8-8-8-8-8-7-7-7-7-7-7-7-7---------------5-5-5-5-5-5-5-5-|
A|---------------------------------------------------------------|
E|---------------------------------------------------------------|

G|--------------------------------7-7-7-7-7-7-7-7-7-7-7-7-7-7-7-7|
D|-8-8-8-8-8-8-8-8-7-7-7-7-7-7-7-7-------------------------------|
A|---------------------------------------------------------------|
E|---------------------------------------------------------------|

There's a hole in my neighbourhood....

Chorus:
G|---------7------------7------------7------------7-5------|
D|-6-5-3-0------6-5-3-0------6-5-3-0------6-5-3-0----------|
A|---------------------------------------------------------|
E|---------------------------------------------------------|

G|---------7-10-7----------7-5---------7-10-7---------7-5-----|
D|-6-5-3-0--------6-5-3-0------6-5-3-0--------6-5-3-0---------|
A|------------------------------------------------------------|
E|------------------------------------------------------------|


Bridge (simple version):
G|----7-7-7-7-7-7-7-7-7-7-7-7-7-7-7----------|
D|-------------------------------------------|
A|-------------------------------------------|
E|-------------------------------------------| X2

Bridge (proper version):
G|-10-7--------------------------------------|
D|------10-7---------------------------------|
A|-----------8-10-8-8-10-12-10-8-12-10-8-5---|
E|-------------------------------------------| X2


Pre Verse  (only played after 1st chorus):
G|-------------10-12-14-12-10---------------------|
D|-12-12-12-12----------------12-12-12-12-12------|
A|------------------------------------------------|
E|------------------------------------------------|

Order:
-rest-
Verse
Pre Chorus
Chorus
Bridge
Pre Verse
Verse
Pre Chorus
-rest-
Chorus
Bridge
            
Submit corrections

comments powered by Disqus
↑ Back to top | Elbow Bass for Grounds For Divorce. Lyrics for acoustic guitar and electric guitar. Tablatures and chords are parodies/interpretations of the original songs. You may use it for private study, scholarship, research or language learning purposes only