» » »

Grounds For Divorce Tabs (ver.2)

Artists:  A B C D E F G H I J K L M N O P Q R S T U V W X Y Z # 

Grounds For Divorce Tabs (ver.2)

Elbow
Rating:
5/5 (21 vote)

Hard to play? Try these video lessons and learn fast.
                This is the song "Grounds For Divorce" by Elbow. I have done this completely by ear so 
wont be 100% right.

My first tab people so be kind please =].

Verse (Clean Guitar)
Starts at "walking" in ->"I've been working on a cocktail..."
e--------------------------------------|
B--------------------------------------|
G--------------------------------------|
D-3-0-0-0-3-0-0-0-3-0-0-0-3-0-0-0  x32-|
A--------------------------------------|
E--------------------------------------|

the 3's can be bent a wee bit if wanted.

Pre-Chorus (Clean Guitar)
Starts at "hole" in ->"There's a hole in my neighborhood..."
        Dm               C
e-1-1-1-1-1-1-1-1-0-0-0-0-0-0-0-0---|
B-3-3-3-3-3-3-3-3-1-1-1-1-1-1-1-1---|
G-2-2-2-2-2-2-2-2-0-0-0-0-0-0-0-0---|
D-----------------2-2-2-2-2-2-2-2---|  x4
A-----------------3-3-3-3-3-3-3-3---|
E-----------------------------------|

On fourth time keep playing C untill it comes to the next riff

Riff (Distorded Guitar)
e------------------------------|--------------------------------|
B------------------------------|--------------------------------|
G--------------------------[x2]|----------------------------[x2]|
D-5^-5-3------5^-5-3-----------|-5^-5-3----------5^-5-3---------|
A--------5-5---------5-5-3-----|--------5-5-8-5---------5-5-3---|
E------------------------------|--------------------------------|

Riff 2 (Distorded Guitar)

This can be played at the "oh oh ohuhoh ohuhoh oh"
e----------------------|
B----------------------|
G----------------------|
D-3-5-5^-5-3-5^-5-3----| x2
A-------------------5--|
E----------------------|

Verse riff can be played before this riff is played the second time.

Order of song:
1.Vertse 1-Verse riff
2.Pre-chorus-Pre-chorus riff
3.Riff-Riff 1
4.Chorus(kinda)-Riff 2
5.Interlude-Bass riff (No guitar)
6.Verse 2-Verse Riff
7.Pre-chorus 2-Pre Chorus
8.Riff-Riff 1
9.Chorus(kinda)2-Riff 2
10.End

Right that's the best i could do. Remember it's my first tab so it wont be the most amazing.

Thanks ;]
            
Hard to play? Try these video lessons and learn fast. | Correct




comments powered by Disqus
↑ Back to top | Tablatures and chords are parodies/interpretations of the original songs. You may use it for private study, scholarship, research or language learning purposes only