>
 >
Crawling With Idiot

Crawling With Idiot Guitar Tabs

Elbow - Crawling With Idiot chords, tabs, tablatures, lyrics

Guitar lessons | Add/correct | Request | Top 50 tabs Artists:  A B C D E F G H I J K L M N O P Q R S T U V W X Y Z 0-9

Crawling With Idiot Guitar Tabs – Elbow

CD, Sheet music, Poster

Do you like Crawling With Idiot? Share with your friends now
Tabs
-------------------------------------------------------------------------------
			     Crawling With Idiot- Elbow
-------------------------------------------------------------------------------

Tuning: standard

Verse (x1)

e|--------------------------------------------------------------------------------|
B|--------------------------------------------------------------------------------|
G|--------------------------------------------------------------------------------|
D|--2--4h2--(2)--4h5----(2)--4h2---(2)--4b5b4---(2)--4h2---(2)--4h5---(2)---------|
A|---------3-----------2---------3------------2---------3----------2--------------|
E|--------------------------------------------------------------------------------|
"It's crawling..."
e|---------------------------------------------------------------------------------|
B|---------------------------------------------------------------------------------|
G|---------------------------------------------------------------------------------|
D|--4h2--(2)--4--(2)--4h2--(2)--4h5h4-(2)--4h2--(2)--4h5--(2)--4h2--(2)------------|
A|------3-------2--------3----------2--------3--------2---------3------------------|
E|---------------------------------------------------------------------------------|
 	                                               "I'm itching to leave"
  "I'm soft..."
e|-------------------------------------------------------------------------------|
B|-------------------------------------------------------------------------------|
G|-------------------------------------------------------------------------------|
D|--4h5--(2)--4h2--(2)--4h5h4--(2)--4h2---(2)--4h5---(2)--4h2--(2)--4------------|
A|------2--------3-----------2---------3---------2---------3---------------------|
E|-------------------------------------------------------------------------------|
"I've never..."                              "In here"

Chorus

e|-------------------------------|
B|-----------0-----------0-------|
G|--------2-----------2----------|	(x2)
D|--4-----------2----------------|
A|-----5-----------3-------------|
E|-------------------------------|
                      "Come on it's..."
	              "Not serious"

e|-----------------------------------------------------|
B|-----------7-------------7------------5--s--7--------|
G|--------9-----9-------7------------5--s-----7--------|
D|-----9-------------7------------5--s--------7--------|
A|--7-------------5------------3--s-----------5--------|
E|-----------------------------------------------------|
                       "I just needs arms..." 	                           "tonight"


Verse (x1)

Chorus

e|-------------------------------|
B|-----------0-----------0-------|
G|--------2-----------2----------|	(x2)
D|--4-----------2----------------|
A|-----5-----------3-------------|
E|-------------------------------|
             "Come on it's..."
	     "Not serious"
e|------------------------------------------------|
B|-----------7-------------7------------5--s--7---|
G|--------9-----9-------7------------5--s-----7---|
D|-----9-------------7------------5--s--------7---|
A|--7-------------5------------3--s-----------5---|
E|------------------------------------------------|
             "I just needs arms..."

Outro

Guitar I

e|--x------x------x------x------|
B|--x------x------x------x------|
G|--x------x------x------x------| (x6 or so)
D|--2------2------2------0------| then Guitar II
A|--2------3------2------0------|
E|--x-------x-----x------x------|
    "tonight..."         "tonight..."

Guitar II

e|-----7----7----------7-----------7b8b7--------|
B|--5----5--------5--5----------5---------5b65--|
G|----------------------------------------------| the rest is just variations of these
D|----------------------------------------------| three formations over
A|----------------------------------------------|
E|----------------------------------------------|

e|----------------------------------------------------|
B|----------------------------------------------------|
G|--------4-----4--1-----------4----2--4--1-----------| the blips at the end sound
D|----0h2----4----------0h2h4-----4-------------------| something like this
A|----------------------------------------------------|
E|----------------------------------------------------|


| /  slide up
| \  slide down
| h  hammer-on
| p  pull-off
| ~  vibrato
| +  harmonic
| x  Mute note
===============================================================================





Comments


Popular Elbow tabs & chords
My Very Best Chords
Neat Little Rows Chords
Grounds For Divorce Tabs
New Born Tabs
Forget Myself Ukulele
Mirrorball Ukulele
One Day Like This 2 Ukulele
Starlings Ukulele
Stops Ukulele
The Loneliness Of A Tower Crane Driver Ukulele


Song lyrics



↑ Back to top | Tablatures and chords are parodies/interpretations of the original songs. You may use it for private study, scholarship, research or language learning purposes only
© 2014 AZChords.com Contact us | Privacy policy | DMCA | Add/correct tabs | Request tabs | Top 50 tabs