» » »

Elastica, Waking Up Tabs (ver.2)

Artists:  A B C D E F G H I J K L M N O P Q R S T U V W X Y Z # 

Waking Up Tabs (ver.2)

Elastica Tabs
Rating:
0/5 (0 votes)
Hard to play? Try these video lessons and learn fast.
                chords are easy, here is the riff in my opinion

-----------------------------------------------------|
-----------------------------------------------------|
-----------------------------------------------------|
-------2-----2-----------------0-----2--------0------|
-0--3-----3-----3-----2-----2-----2-----3------------|
-------------------3-----3-----------------3---------|


------------------------------------------------------|
------------------------------------------------------|
------------------------------------------------------|
-------2-----5-----------------0-----2--------0-------|
-0--3-----3-----3-----2-----2-----2-----3-------------|
-------------------3-----3-----------------3----------|


-----------------------------------------------------|
-----------------------------------------------------|
-----------------------------------------------------|
-------2-----2-----------------0-----2--------0------|
-0--3-----3-----3-----2-----2-----2-----3------------|
-------------------3-----3-----------------3---------|

------------------------------------------------------|
------------------------------------------------------|
------------------------------------------------------|
-------2-----5-----------------0-----2----------------|
-0--3-----3-----3-----2-----2-----2-------------------|
-------------------3-----3----------------------------|
            

comments powered by Disqus
↑ Back to top | Elastica Tabs for Waking Up. Lyrics for acoustic guitar and electric guitar. Tablatures and chords are parodies/interpretations of the original songs. You may use it for private study, scholarship, research or language learning purposes only