» » »

All For Gloria Bass tabs (ver.1)

Artists:  A B C D E F G H I J K L M N O P Q R S T U V W X Y Z # 

All For Gloria Bass tabs (ver.1)

Elastica
Rating:
0/5 (0 votes)

Hard to play? Try these video lessons and learn fast.
                Verse/Intro:

G|-------------------------------------------
D|-------------------------------------------
A|0-0-0-0-0-0-0-0----------------------------
E|----------------0-0-0-0-0-0-0-0-2-5-5-4-5-5



Chorus:

G|---------------------------------------------------------
D|---------------------------------------------------------
A|7-5-4-5-7-5-4-2-4-5-4-2-0-2-4-0-------0------------------
E|--------------------------------4-2-4---2-0-0-2-5-5-4-5-5
            
Hard to play? Try these video lessons and learn fast. | Correct




comments powered by Disqus
↑ Back to top | Tablatures and chords are parodies/interpretations of the original songs. You may use it for private study, scholarship, research or language learning purposes only