» » »

Elastica, 2 1 Bass tabs (ver.2)

Artists:  A B C D E F G H I J K L M N O P Q R S T U V W X Y Z # 

2 1 Bass tabs (ver.2)

Elastica Tabs
 Rating:
4/5 (4 votes)
2 1 lessons Tabs too difficult? Try these video lessons and learn fast
                -------------------------------------------------------------------------------
			     2:1 - Elastica
-------------------------------------------------------------------------------


Tuning:EADG

Intro
G|---------------------|
D|---------------------| X5
A|---------------------|
E|-4/9--4/9--4/9--4/99-|

G|-----------------|
D|-----------------|
A|-----------------|
E|-4-4-4-----4-4-4-|

Verse 1
(Keeping a brave face in circumstancesis impossible...)
G|---------------------|
D|---------------------| X3
A|---------------------|
E|-4/9--4/9--4/9--4/99-|

G|-----------------|
D|-----------------|
A|-----------------|
E|-4-4-4-----4-4-4-|

G|---------------------|
D|---------------------| X3
A|---------------------|
E|-4/9--4/9--4/9--4/99-|

G|-----------------------------------------|
D|-----------------------------------------|
A|-----------------------------------------|
E|-4-4-4-----4-4-4-----4-4-----4-4--444444-|

Chorus 1
G|--------------------------|
D|---2-4-6r-----2-4-6-6-4-2-|
A|-4----------4-------------|
E|--------------------------|
r=let ring

G|--------------------------|
D|--------------------------|
A|---3-4-6r-----3-4-6-6-4-3-|
E|-4----------4-------------|
r=let ring

G|--------------------------|
D|---2-4-6r-----2-4-6-6-4-2-|
A|-4----------4-------------|
E|--------------------------|
r=let ring

G|------------------|
D|------------------|
A|---3-4-6r---6/7-6-|
E|-4----------------|
r=let ring

Verse 2
(Sandman comes [it's tragic], 2 to 1, [lay down on your side]...)
G|---------------------|
D|---------------------| X3
A|---------------------|
E|-4/9--4/9--4/9--4/99-|

G|-----------------|
D|-----------------|
A|-----------------|
E|-4-4-4-----4-4-4-|

G|---------------------|
D|---------------------| X3
A|---------------------|
E|-4/9--4/9--4/9--4/99-|

G|-----------------------------------------|
D|-----------------------------------------|
A|-----------------------------------------|
E|-4-4-4-----4-4-4-----4-4-----4-4--444444-|

Chorus 2/ Outro
G|--------------------------|
D|---2-4-6r-----2-4-6-6-4-2-|
A|-4----------4-------------|
E|--------------------------|
r=let ring

G|--------------------------|
D|--------------------------|
A|---3-4-6r-----3-4-6-6-4-3-|
E|-4----------4-------------|
r=let ring

G|--------------------------|
D|---2-4-6r-----2-4-6-6-4-2-|
A|-4----------4-------------|
E|--------------------------|
r=let ring

G|---------------------|
D|---------------------|
A|---3-4-6r---6/7-6--4-|
E|-4-------------------|
r=let ring
            
Submit corrections

comments powered by Disqus
↑ Back to top | Elastica Bass for 2 1. Lyrics for acoustic guitar and electric guitar. Tablatures and chords are parodies/interpretations of the original songs. You may use it for private study, scholarship, research or language learning purposes only