» » »

2 1 Bass tabs (ver.1)

Artists:  A B C D E F G H I J K L M N O P Q R S T U V W X Y Z # 

2 1 Bass tabs (ver.1)

Elastica
Rating:
0/5 (0 votes)

Hard to play? Try these video lessons and learn fast.
                Bassist: Annie Holland
out with a few tabs i'm stuck with...

Drum intro

Main Verse

G|----------|
D|----------|
A|----------|
E|---4/9\---|

Line End

G|-----------------|
D|-----------------|
A|-----------------|
E|---4-4-4---4-4-4-|

Verse End

G|-----------------------------------------|
D|-----------------------------------------|
A|-----------------------------------------|
E|---4-4-4---4-4-4---4-4--4-4--4-4-4-4-4-4-|

Chorus (although it isn't really a proper chorus)

G|-------------------------------------------|
D|-------------------------------------------|
A|------------9--10---------9--10--10--9-----|
E|--9--9--12---------9--12----------------12-|

G|---------------------------------------|
D|---------------------------------------|
A|--------3--4--6-------3--4--6--6--4--3-|
E|--4--4-------------4-------------------|


G|-------------------------------------------|
D|-------------------------------------------|
A|------------9--10---------9--10--10--9-----|
E|--9--9--12---------9--12----------------12-|

End of First Chorus

G|----------------------------------|
D|----------------------------------|
A|--------3--4--6------6/7--7--7--6-|
E|--4--4----------------------------|

End of Second Chorus


G|----------------------------------------|
D|----------------------------------------|
A|--------3--4--6------7--7--7--6--6--6--4|
E|--4--4----------------------------------|

Main Verse x20
Line End x1
Main Verse x12
Line End x1
Main Verse x12
Verse End x1
Chorus x1
End of First Chorus x1
Main Verse x12
Line End x1
Main Verse x12
Verse End x1
Chorus x1
End of Second Chorus x1

i love this track it's so unlike any other song and the two
sets of vocals was a cool idea. apparently its about stage fright!
            
Hard to play? Try these video lessons and learn fast. | Correct




comments powered by Disqus
↑ Back to top | Tablatures and chords are parodies/interpretations of the original songs. You may use it for private study, scholarship, research or language learning purposes only