» » »

Voda Co Ma Drzi Nad Vodou Tabs (ver.1)

Artists:  A B C D E F G H I J K L M N O P Q R S T U V W X Y Z # 

Voda Co Ma Drzi Nad Vodou Tabs (ver.1)

Elan
Rating:
2/5 (1 vote)

Tabs too difficult? Try these video lessons and learn fast.
                E||---------------------------------------------------|
B||-----4--5--7--7b----------7b----5---5~----L-----5--|
G||--6-------------------------------6----------6-----|
D||---------------------------------------------------|
A||---------------------------------------------------|
E||---------------------------------------------------|
 


-----------------------------------------------------------------------|
--7b----7------5--4--------------4--5--7--5------7--4----5----------5--|
---------------------6---5----6-----------------------------6----6-----|
-----------------------------------------------------------------------|
-----------------------------------------------------------------------|
-----------------------------------------------------------------------|



-----7---------------------------------------12-14-12-14-16-14b----12----12--|
--7-----7b------7b----7-5---4~------14-12-14--------------------------14-----|
-----------------------------------------------------------------------------|
-----------------------------------------------------------------------------|
-----------------------------------------------------------------------------|
-----------------------------------------------------------------------------|
     
--14~-------12-14-12-14-16-14b----16----19--19b------16-----------|
---------14----------------------------------------------19b------|
------------------------------------------------------------------|
------------------------------------------------------------------|
------------------------------------------------------------------|
------------------------------------------------------------------|


  
--16-19-16------16-19-16------16-19-16------16-19-16------|
-----------19b-----------19b-----------19b-----------19b--|
----------------------------------------------------------|
----------------------------------------------------------|
----------------------------------------------------------|
----------------------------------------------------------|

   
----------------------------------------------------------------------|
---L--19--17-19-17-19-17----------17-19b------17-------4--5--7--7b----|
-------------------------18-16-18-------------------6-----------------|
----------------------------------------------------------------------|
----------------------------------------------------------------------|
----------------------------------------------------------------------|



---------------------------------------------------------------------|
--5--4-5-4----------------------------------------------9-11-9-11-14-|
-----------6--5--6--------------------------10-11-10-11--------------|
----------------------4--6----L----13-11-13--------------------------|
---------------------------------------------------------------------|
---------------------------------------------------------------------|


                                                     
-------------------------------------------------------------------||
--14b16)-----------------(16)r14-----------------------------------||
-------------------------------------------------------------------||
-------------------------------------------------------------------||
-------------------------------------------------------------------||
-------------------------------------------------------------------||





Tablature Legend
----------------
L - tied note
x - dead note
g - grace note
(n) - ghost note
> - accentuded note
NH - natural harmonic
AH - artificial harmonic
TH - tapped harmonic
SH - semi harmonic
PH - pitch harmonic
h - hammer on
p - pull off
b - bend
br - bendRelease
pb - preBend
pbr - preBendRelease
brb - bendReleaseBend
\n/ - tremolo bar dip
\n - tremolo bar dive
-/n - tremolo bar Release up
/n\ - tremolo bar inverted dip
/n - tremolo bar return
-\n - tremolo bar Release down
S - shift slide
s - legato slide
/ -  slide into from below or out of upwards
\ -  slide into from above or out of downwards
~ - vibrato
W - wide vibrato
tr - trill
TP - tremolo picking
T - tapping
S - slap
P - pop
< - fade in
^ - brush up
v - brush down
            
Tabs too difficult? Try these video lessons and learn fast.


comments powered by Disqus
↑ Back to top | Tablatures and chords are parodies/interpretations of the original songs. You may use it for private study, scholarship, research or language learning purposes only