» » »

Elan, Street Child Tabs (ver.1)

Artists:  A B C D E F G H I J K L M N O P Q R S T U V W X Y Z # 

Street Child Tabs (ver.1)

Elan Tabs
 Rating:
4.5/5 (8 votes)
Street Child lessons Tabs too difficult? Try these video lessons and learn fast
1
                Elan - Street Child feat. Slash

Tuning: 1/2 step down from E

I'm pretty sure that this is 100% accurate. leave me comments.

Chords:

            Am              G
We are the little ones who roam the underbelly
            D                      E
Of the streets that normal people walk
Am                         G
Wrong side of the tracks, the deep end of the ocean
       D                                 E
The color of the gypsies in the shadow night
           Am         G
Darkness inside out seeps into your veins

Listen to the rain
     D
The only thing keeping you alive
     E
Is the gracious night

[Chorus:]
       Am          G
Let me go, let me sleep until forever
        D                               E
Let me close my eyes and hide until the never
       Am          G
Let me go, let me slip into the sky
       D                            E
And tiptoe into madness in a hollow cry

Bridge:
        C                    Am
'Cause no one ever told me I committed any crime
    G                       D
And no one ever told me how I went blind
     C                      Am
And all I ever wanted was a free mind
     G                                   D
A guiltless conscience and a place where I could fly
            C
I threw my cards out on the table
             Am
And I put my neck out on the line
G
I took the verdict I was handed
                D
And now I've served my time

[Chorus x2]

Let me go

Guitar Solos:

Slash uses a wah during the first half of the solo mainly as a filter. He does rock it 
and forth, but only a couple times. He does it very slowly, and not all the way. The wah 
kept in the heel down position mostly though, just listen to the song.

e|---------------------------------------------------------------------------|
B|---------------------------------------------------------------------------|
G|--/9--—7b9 b9—b9r7p5---------------------------------5--7b9--5--7~---------|
D|-5--------------------7~~---b8(1/2)-5--7-----5---5h7---------------5h7p5\4-|
A|------------------------------------------7--------------------------------|
E|---------------------------------------------------------------------------|


e|-------------------8------------/10b12r10p8--------------------------------|
B|-----------8--------8------------------------10----------------------------|
G|-----5—7b9====(9)-------7b9rb5--------------------/14~~~-------------------|
D|-5h7-----------------------------------------------------------------------|
A|---------------------------------------------------------------------------|
E|---------------------------------------------------------------------------|

e|---------------------------------------------------------------------------|
B|---------------------------------------------------------------------------|
G|-12--14—14b16—b16—b16-b16r(slowly)14--12--14------12~~\--------------------|
D|----------------------------------------------14---------------------------|
A|---------------------------------------------------------------------------|
E|---------------------------------------------------------------------------|

e|-------------------------------------15------15======15--------------------|
B|------13—15b17r15p13h15~~---13---b17-----b17----b17-----r15p13-------------|
G|--/14----------------------------------------------------------14----------|
D|---------------------------------------------------------------------------|
A|---------------------------------------------------------------------------|
E|---------------------------------------------------------------------------|

e|------------------------------------------------17-------------------------|
B|-20b22~~~--20b22-b22-b22---------------------------------------------------|
G|------------------------prebend20r19b21~~---b21-----prebend21r19-----------|
D|---------------------------------------------------------------------------|
A|---------------------------------------------------------------------------|
E|---------------------------------------------------------------------------|

e|---------------------------------------------------------------------------|
B|---------------------------------------------------------------------------|
G|-17-19-19b20r19p17--19—17b1/2-------17b1/2---------------------------------|
D|-------------------------------19------------------------------------------|
A|---------------------------------------------------------------------------|
E|---------------------------------------------------------------------------|

e|---------------------------------------------------------------------------|
B|-12h13p12----12-13-15-12----------12--15--13-12-13-12------12--------------|
G|----------14-------------13----13-----------------------15-----------------|
D|----------------------------14---------------------------------------------|
A|---------------------------------------------------------------------------|
E|---------------------------------------------------------------------------|


e|-------15------------------17--19-20p19-20p19p17—19b20~~-pb20r19p17h19~~---|
B|-15b17====17r15p13-----/17-------------------------------------------------|
G|-------------- ----14\-----------------------------------------------------|
D|---------------------------------------------------------------------------|
A|---------------------------------------------------------------------------|
E|---------------------------------------------------------------------------|

e|--19b20-19—17h19p17---17---------------------------------------------------|
B|--------------------19-----20b22—20b22—20-17-18---------20-----------------|
G|--------------------------------------------------19b21=====(21)-----------|
D|---------------------------------------------------------------------------|
A|---------------------------------------------------------------------------|
E|---------------------------------------------------------------------------|

e|---------------------------------------------------------------------------|
B|---------------------------------------------------------------------------|
G|--b21-21-21-21-21-(slowly release bend)---17---19b21r19p17-----------------|
D|------------------------------------------------------------19~~-----------|
A|---------------------------------------------------------------------------|
E|---------------------------------------------------------------------------|

| /  slide up
| \  slide down
| h  hammer-on
| p  pull-off
| ~  vibrato
| +  harmonic
| x  Mute note
| pb prebend
| b  bend
| r release bend
| = hold note/bend
| () ghost note (not picked)
|
===============================================================================
            
Submit corrections

comments powered by Disqus
↑ Back to top | Elan Tabs for Street Child. Lyrics for acoustic guitar and electric guitar. 1 Tablatures and chords are parodies/interpretations of the original songs. You may use it for private study, scholarship, research or language learning purposes only