>
 >
Street Child

Street Child Guitar Tabs

Elan - Street Child chords, tabs, tablatures, lyrics

Guitar lessons | Add/correct | Request | Top 50 tabs Artists:  A B C D E F G H I J K L M N O P Q R S T U V W X Y Z 0-9

Street Child Guitar Tabs – Elan

CD, Sheet music, Poster

Do you like Street Child? Share with your friends now
ChordsTabsUkulele
Elan - Street Child feat. Slash

Tuning: 1/2 step down from E

I'm pretty sure that this is 100% accurate. leave me comments.

Chords:

            Am              G
We are the little ones who roam the underbelly
            D                      E
Of the streets that normal people walk
Am                         G
Wrong side of the tracks, the deep end of the ocean
       D                                 E
The color of the gypsies in the shadow night
           Am         G
Darkness inside out seeps into your veins

Listen to the rain
     D
The only thing keeping you alive
     E
Is the gracious night

[Chorus:]
       Am          G
Let me go, let me sleep until forever
        D                               E
Let me close my eyes and hide until the never
       Am          G
Let me go, let me slip into the sky
       D                            E
And tiptoe into madness in a hollow cry

Bridge:
        C                    Am
'Cause no one ever told me I committed any crime
    G                       D
And no one ever told me how I went blind
     C                      Am
And all I ever wanted was a free mind
     G                                   D
A guiltless conscience and a place where I could fly
            C
I threw my cards out on the table
             Am
And I put my neck out on the line
G
I took the verdict I was handed
                D
And now I've served my time

[Chorus x2]

Let me go

Guitar Solos:

Slash uses a wah during the first half of the solo mainly as a filter. He does rock it 
and forth, but only a couple times. He does it very slowly, and not all the way. The wah 
kept in the heel down position mostly though, just listen to the song.

e|---------------------------------------------------------------------------|
B|---------------------------------------------------------------------------|
G|--/9--7b9 b9b9r7p5---------------------------------5--7b9--5--7~---------|
D|-5--------------------7~~---b8(1/2)-5--7-----5---5h7---------------5h7p5\4-|
A|------------------------------------------7--------------------------------|
E|---------------------------------------------------------------------------|


e|-------------------8------------/10b12r10p8--------------------------------|
B|-----------8--------8------------------------10----------------------------|
G|-----57b9====(9)-------7b9rb5--------------------/14~~~-------------------|
D|-5h7-----------------------------------------------------------------------|
A|---------------------------------------------------------------------------|
E|---------------------------------------------------------------------------|

e|---------------------------------------------------------------------------|
B|---------------------------------------------------------------------------|
G|-12--1414b16b16b16-b16r(slowly)14--12--14------12~~\--------------------|
D|----------------------------------------------14---------------------------|
A|---------------------------------------------------------------------------|
E|---------------------------------------------------------------------------|

e|-------------------------------------15------15======15--------------------|
B|------1315b17r15p13h15~~---13---b17-----b17----b17-----r15p13-------------|
G|--/14----------------------------------------------------------14----------|
D|---------------------------------------------------------------------------|
A|---------------------------------------------------------------------------|
E|---------------------------------------------------------------------------|

e|------------------------------------------------17-------------------------|
B|-20b22~~~--20b22-b22-b22---------------------------------------------------|
G|------------------------prebend20r19b21~~---b21-----prebend21r19-----------|
D|---------------------------------------------------------------------------|
A|---------------------------------------------------------------------------|
E|---------------------------------------------------------------------------|

e|---------------------------------------------------------------------------|
B|---------------------------------------------------------------------------|
G|-17-19-19b20r19p17--1917b1/2-------17b1/2---------------------------------|
D|-------------------------------19------------------------------------------|
A|---------------------------------------------------------------------------|
E|---------------------------------------------------------------------------|

e|---------------------------------------------------------------------------|
B|-12h13p12----12-13-15-12----------12--15--13-12-13-12------12--------------|
G|----------14-------------13----13-----------------------15-----------------|
D|----------------------------14---------------------------------------------|
A|---------------------------------------------------------------------------|
E|---------------------------------------------------------------------------|


e|-------15------------------17--19-20p19-20p19p1719b20~~-pb20r19p17h19~~---|
B|-15b17====17r15p13-----/17-------------------------------------------------|
G|-------------- ----14\-----------------------------------------------------|
D|---------------------------------------------------------------------------|
A|---------------------------------------------------------------------------|
E|---------------------------------------------------------------------------|

e|--19b20-1917h19p17---17---------------------------------------------------|
B|--------------------19-----20b2220b2220-17-18---------20-----------------|
G|--------------------------------------------------19b21=====(21)-----------|
D|---------------------------------------------------------------------------|
A|---------------------------------------------------------------------------|
E|---------------------------------------------------------------------------|

e|---------------------------------------------------------------------------|
B|---------------------------------------------------------------------------|
G|--b21-21-21-21-21-(slowly release bend)---17---19b21r19p17-----------------|
D|------------------------------------------------------------19~~-----------|
A|---------------------------------------------------------------------------|
E|---------------------------------------------------------------------------|

| /  slide up
| \  slide down
| h  hammer-on
| p  pull-off
| ~  vibrato
| +  harmonic
| x  Mute note
| pb prebend
| b  bend
| r release bend
| = hold note/bend
| () ghost note (not picked)
|
===============================================================================





Comments


Popular Elan tabs & chords
Call Home Chords
Midnigth Chords
Street Child Chords
They Came From The City Chords
Time Chords
Voda Co Ma Drzi Nad Vodou Tabs
Call Home Ukulele
Street Child Ukulele
They Came From The City Ukulele
Time Ukulele


Song lyrics



↑ Back to top | Tablatures and chords are parodies/interpretations of the original songs. You may use it for private study, scholarship, research or language learning purposes only
© 2014 AZChords.com Contact us | Privacy policy | DMCA | Add/correct tabs | Request tabs | Top 50 tabs